Classical Thump by Victor Wooten Guitar Chords

If you are looking for Classical Thump guitar chords, you just visit to the best site.
You can play Classical Thump by Victor Wooten using guitar or guitar.
This song by Victor Wooten can also be played by that device.
=

Classical Thump guitar chords has tempo and included in A Show of Hands (1996) album.
You can also find other musical category, along with jazz guitar chords, country music guitar chords, pop guitar chords, world music guitar chords, and rock guitar chords here.

Classical Thump by Victor Wooten Guitar Chords



|-------4---4-----|-----5-4-5-4-2---|-----5---5---5---|-------4---4-----|
|-----5---5---5---|---5-----------5-|---5---4---4---4-|-----5---5---5---|
|---5-----------5-|-3---------------|-5---------------|---5-----------5-|
|-3---------------|-----------------|-----------------|-3---------------|

T T T P T P T T T T P T P T P T T T P T P T P T T T T P T P T T

S S S S S S S S S S S S S S S S S S S S S S S S S S S S S S S S


|-------------0h4-----0h4---------|---------0h5-0h4-0h5-0h4-0h2-----|
|---------0h5-----0h5-----0h5-----|-----0h5---------------------0h5-|
|-----0h5---------------------0h5-|-0h3-----------------------------|
|-0h3-----------------------------|---------------------------------|

T T T T T T T T T T T T T T T T

S S S S S S S S S S S S S S S S S S S S S S S S S S S S S S S S


|---------0h5-----0h5-----0h5-----|-------------0h4-----0h4---------|
|-----0h5-----0h4-----0h4-----0h4-|---------0h5-----0h5-----0h5-----|
|-0h5-----------------------------|-----0h5---------------------0h5-|
|---------------------------------|-0h3-----------------------------|

T T T T T T T T T T T T T T T T


|-3-| |-3-| |-3-| |-3-| |-3-| |-3-| |-3-| |-3-|

S S S S S S S S S S S S S S S S S S S S S S S S


|-------------------0h4-4-------0h4-4-------------|
|-------------0h5-5-------0h5-5-------0h5-5-------|
|-------0h5-5-------------------------------0h5-5-|
|-0h3-3-------------------------------------------|

T P T P T P T P T P T P T P T P


|-3-| |-3-| |-3-| |-3-| |-3-| |-3-| |-3-| |-3-|

S S S S S S S S S S S S S S S S S S S S S S S S


|-------------0h5-5-0h4-4-0h5-5-0h4-4-0h2-2-------|
|-------0h5-5-------------------------------0h5-5-|
|-0h3-3-------------------------------------------|
|-------------------------------------------------|

T P T P T P T P T P T P T P T P


|-3-| |-3-| |-3-| |-3-| |-3-| |-3-| |-3-| |-3-|

S S S S S S S S S S S S S S S S S S S S S S S S


|-------------0h5-5-------0h5-5-------0h5-5-------|
|-------0h5-5-------0h4-4-------0h4-4-------0h4-4-|
|-0h5-5-------------------------------------------|
|-------------------------------------------------|

T P T P T P T P T P T P T P T P


|--3--| |--3--| |-3-| |-3-| |-3-| |-3-| |-3-|

S S S S S S S S S S S S S S S S S S S S S E


|-0h12-12-0h11-11-0h9-9-0h7-7-0h5-5-0h4-4-0h2-2-0-|
|-------------------------------------------------|
|-------------------------------------------------|
|-------------------------------------------------|

T P T P T P T P T P T P T P T


|--3--| |--3--| |--3--| |--3--| |--3--| |--3--| |--3--| |--3--|

S S S S S S S S S S S S S S S S S S S S S S S S


|-0h12-12-----------------0h12-12-0h11-11-----------------0h11-11-|
|---------0h14-14-------------------------0h12-12-----------------|
|-----------------0h14-14-------------------------0h12-12---------|
|-----------------------------------------------------------------|

T P T P T P T P T P T P T P T P


|-3-| |--3--| |--3--| |-3-| |-3-| |-3-| |-3-| |-3-|

S S S S S S S S S S S S S S S S S S S S S S S S


|-0h9-9-----------------0h9-9-0h7-7-------------0h7-7-|
|-------0h10-10---------------------0h9-9-------------|
|---------------0h10-10-------------------0h9-9-------|
|-----------------------------------------------------|

T P T P T P T P T P T P T P T P


|-3-| |-3-| |-3-| |-3-| |-3-| |-3-| |-3-| |-3-|

S S S S S S S S S S S S S S S S S S S S S S S S


|-0h5-5-------------0h5-5-0h4-4-------------0h4-4-|
|-------0h7-7-------------------0h5-5-------------|
|-------------0h7-7-------------------0h5-5-------|
|-------------------------------------------------|

T P T P T P T P T P T P T P T P


|-3-| |-3-| |-3-| |-3-| |-3-| |-3-| |-3-|

S S S S S S S S S S S S S S S S S S S S S E


|-0h2-2---------------------------------------|
|-------0h4-4-------0h4-4-0h2-2---------------|
|-------------0h3-3-------------0h2-2---------|
|-------------------------------------0h3-3-0-|

T P T P T P T P T P T P T P T


|--3--| |--3--| |--3--| |--3--| |--3--| |--3--| |--3--| |--3--|

S S S S S S S S S S S S S S S S S S S S S S S S


|------12------12------12------12------11------11------11------11-|
|---------0h14------------0h14----0h12------------0h12------------|
|-0h14------------0h14--------------------0h12------------0h12----|
|-----------------------------------------------------------------|

T P T P T P T P T P T P T P T P


|--3-| |--3-| |--3-| |--3-| |-3-| |-3-| |-3-| |-3-|

S S S S S S S S S S S S S S S S S S S S S S S S


|------9------9------9------9-----7-----7-----7-----7-|
|--------0h10----------0h10---0h9---------0h9---------|
|-0h10----------0h10----------------0h9---------0h9---|
|-----------------------------------------------------|

T P T P T P T P T P T P T P T P


|-3-| |-3-| |-3-| |-3-| |-3-| |-3-| |-3-| |-3-|

S S S S S S S S S S S S S S S S S S S S S S S S


|-----5-----5-----5-----5-----4-----4-----4-----4-|
|-------0h7---------0h7---0h5---------0h5---------|
|-0h7---------0h7---------------0h5---------0h5---|
|-------------------------------------------------|

T P T P T P T P T P T P T P T P


|-3-| |-3-| |-3-| |-3-|

S S S S S S S S S S S S E E E E


|-----2-----2-----2-----2--------------|
|-------0h4---------0h4----2-----------|
|-0h3---------0h3-------------2--------|
|--------------------------------3--0--|

T P T P T P T P T T T T


|--3--| |---3---||--3--| |---3---||--3--||---3---| |--3--| |---3--|

S S S S S S S S S S S S S S S S S S S S S S S S


|---------12----12---------16----12---------11----11---------14----11-|
|------------------0h14-14----14---------------------0h12-12----12----|
|-0h14-14----14---------------------0h12-12----12---------------------|
|---------------------------------------------------------------------|

T T P T P T T P T P T T P T P T T P T P


|--3--| |--3--||--3--| |--3--| |-3-| |-3-| |-3-| |--3--|

S S S S S S S S S S S S S S S S S S S S S S S S


|---------9----9---------12----9-------7---7-------11---7-|
|----------------0h10-10----10---------------0h9-9----9---|
|-0h10-10---10-------------------0h9-9---9----------------|
|---------------------------------------------------------|

T T P T P T T P T P T T P T P T T P T P


|-3-| |-3-| |-3-| |-3-| |-3-| |-3-| |-3-| |-3-|

S S S S S S S S S S S S S S S S S S S S S S S S


|-------5---5-------9---5-------4---4-------7---4-|
|-------------0h7-7---7---------------0h5-5---5---|
|-0h7-7---7---------------0h5-5---5---------------|
|-------------------------------------------------|

T T P T P T T P T P T T P T P T T P T P


|-3-| |-3-| |-3-| |-3-| |-3-|

S S S S S S S S S S S S S S S E E E


|-------2---2-------5---2-----0-------|
|-------------0h4-4---4---0h2---------|
|-0h3-3---3---------------------2-----|
|---------------------------------3-0-|

T T P T P T T P T P T P T T T


|--3--| |--3--| |--3--| |--3--| |--3--| |--3--| |--3--| |--3--|

S S S S S S S S S S S S S S S S S S S S S S S S


|-----------------------------21-21-----------------------------19-19-|
|------17-17-21-21------21-21------------16-16-19-19------19-19-------|
|------------------0h19------------------------------0h17-------------|
|-0h19------------------------------0h17------------------------------|

T T T T


|--3--| |--3--| |--3--| |--3--| |--3--| |--3--| |--3--| |--3--|

S S S S S S S S S S S S S S S S S S S S S S S S


|-----------------------------17-17-----------------------------16-16-|
|------14-14-17-17------17-17------------13-13-16-16------16-16-------|
|------------------0h15------------------------------0h14-------------|
|-0h15------------------------------0h14------------------------------|

T T T T


|--3--| |--3--| |--3--| |--3--| |--3--||--3--| |--3--||--3--|

S S S S S S S S S S S S S S S S S S S S S S S S


|-----------------------------14-14-----------------------------12-12-|
|------11-11-14-14------14-14-------------9--9-12-12------12-12-------|
|------------------0h12------------------------------0h10-------------|
|-0h12------------------------------0h10------------------------------|

T T T T


|-3-| |--3--| |-3-| |--3--| |-3-| |-3-| |--3--|

S S S S S S S S S S S S S S S S S S S S S E


|-------------------------11-11-----0-----9-12p9-16/21~~~-|
|-----8-8-11-11-----11-11-------------0h9-----------------|
|---------------0h9-------------0h7-----------------------|
|-0h9-----------------------------------------------------|

T T T P T P T R


 

If you want to learn Victor Wooten Classical Thump guitar chords, The 5 chords we’ll look at are the C major, A major, G major, E major, and D major.
The reason we use all major chords is that the minor versions of any of these chords just lack tiny adjustments.
Each one of those minor chords is absolutely based on its major counterpart

The more you proceeding, the simple guitar will feel to play Classical Thump. Guitar is tough to learn in the beginning, but gets easier the more time you stick with it.

Leave a Comment