Come Along by Titiyo Guitar Chords

When you looking for Come Along guitar chords, you have visit to the perfect site.
You can play Come Along by Titiyo using guitar or guitar.
This song by Titiyo can also be played by that device.
=

Come Along guitar chords has tempo and included in album.
You can also find more musical category, including jazz guitar chords, country music guitar chords, pop guitar chords, world music guitar chords, and rock guitar chords here.

Come Along by Titiyo Guitar Chords


Titiyo ? Come along

Intro:


e|---------------|---------------|
b|---------------|---------------|
G|-------5------|----------5---| repeat 3x
D|3----/6------3|-----/86-----|
A|-3----/6------3|-----/86------|
E|---------------|---------------|

Verse:


e|---------------|---------------|
b|---------------|---------------|
G|-------5------|----------5---| 3x
D|3----/6------3|-----/86-----|
A|-3----/6------3|-----/86------|
E|---------------|---------------|
e---------------|---------------|
b-/6------------|---------------|
G-/6-----/5-----|-------------5-|
D-/6-----/6----3|--------/86---|
A--------/6----3|--------/86---|
E---------------|---------------|

Chorus:


e|---------------|---------------|
b|---------------|---------------|
G|-------5------|----------5---| 4x
D|3----/6------3|-----/86-----|
A|-3----/6------3|-----/86------|
E|---------------|---------------|

Come along now, come along with me
And I?ll ease your pain
Come along, Come along with me
And let?s seize this day
Come along, come along with me

2 bars rest:


e---------------|---------------|
b---------------|---------------|
G---------------|---------------|
D---------------|---------------|
A---------------|---------------|
E---------------|---------------|

Repeat Verse
Repeat Chorus

Bridge, Guitar solo (mild overdrive):


e---10b11-------|---------------|
b---------12b10-|-9~------------|
G---------------|---10--|
D---------------|---------------|
A---------------|---------------|
E---------------|---------------|
E|-------11----8-------|-------11----8-------|
B|-9--------/9---11-8--|-9--------/9---11----|
G|--10----------------|---10---------------| 2x
D|--------------------|--------------------|
A|---------------------|---------------------|
E|---------------------|---------------------|

Outro (chorus):


e|---------------|---------------|
b|---------------|---------------|
G|-------5------|----------5---| 2x
D|3----/6------3|-----/86-----|
A|-3----/6------3|-----/86------|
E|---------------|---------------|

Come along now, come along with me
And I?ll ease your pain
Come along, Come along with me
And let?s seize this day
Ooh, come along with me

Chords:
Bbm: 688666
Eb: x68886
Ab: 466544
C#maj7: x46564
Edim: x7898x
Fm: x8101098


 

If you want to master Titiyo Come Along guitar chords, The 5 chords we’ll look at are the C major, A major, G major, E major, and D major.
The reason we use all major chords is that the minor versions of any of these chords just lack tiny adjustments.
Every of those minor chords is quite based on its major counterpart

The more you practice, the smooth guitar will feel to play Come Along. Guitar is tough to learn in the beginning, but gets easier the more time you stick with it.

Leave a Comment