Day You Left by The Panic Division Guitar Chords

When you looking for Day You Left guitar chords, you already come to the best site.
You can play Day You Left by The Panic Division using guitar or guitar.
This song by The Panic Division can also be played by that device.
=

Day You Left guitar chords has tempo and included in album.
You can also find more musical genres, including jazz guitar chords, country music guitar chords, pop guitar chords, world music guitar chords, and rock guitar chords here.

Day You Left by The Panic Division Guitar Chords


Tabbed By: Mark Peters
Email:markpeterz@hotmail.co.uk

As always it’s a bit difficult to try and tab out a song that isn’t really composed for
acoustic guitar.. but i figured some stuff out… so here it is:

Tuning: Standard (Capo 2) (I’ve named the chords something easy because once you get the
on their names become stupidly long!)


e|---0----0----0----0----0--------------------------------------------------------|
B|---0----0----0----0----5--------------------------------------------------------|
G|---2----4----6----8----4--------------------------------------------------------|
D|---2----4----6----8----6--------------------------------------------------------|
A|---0----2----4----6----4--------------------------------------------------------|
E|---0----0----0----0----0--------------------------------------------------------|

Intro: A,B,C,E — A,B,C,B

VERSE:

My love,
Don’t know where we’re goin, don’t know where we are

And lately I’m feeling that the feeling’s gone for you my love

We crawled
In every direction like a dead-end song

And lately I’m feeling that it feels so wrong with you my love

CHORUS:

You know we fell so hard
So hard it put a hole in my heart
When you fall in love again you’ll think about your decision

When you drive your car outside the home that made you cry
You’ll think about the day you left
You’ll think about the life you left behind

My love,
Offer surrender and you close your doors
Lately I’m feeling what you’re fighting for is someone else, my love

You made an art of theft ’cause this time I got nothing left
(Uh-huh uh-huh)
Well I got nothing left

CHORUS:
( Tab from: http://www.guitartabs.cc/tabs/t/the_panic_division/day_you_left_acoustic_tab.html )
You know we fell so hard
So hard it put a hole in my heart
When you fall in love again you’ll think about your decision

When you drive your car outside the home that made you cry
You’ll think about the day you left
You’ll think about the life you left behind

BRIDGE: (Alternate between A & B)

When you fall in love, you fall in love

CHORUS:

A……..
You know we fell so hard

So hard it put a hole in my heart
When you fall in love again you’ll think about my position

When you drive your car outside the home that made you cry
You’ll think about the day you left
You’ll think about the day you left
You’ll think about the day you left
You’ll think about the life you left behind

THE PIANO BIT (3.56): (CAPO 2 Still not that it matters really!)

PART 1 (REPEAT TWICE)


e|---------------------------------------------------------------|
B|--------------5-4-------------------------9-7--7/5-4-----------|
G|---6-4-4-4h6------4-4/6-4-4-6-6-4-4-4h6--------------4-6-4-4---|
D|---------------------------------------------------------------|
A|---------------------------------------------------------------|
E|---------------------------------------------------------------|
e|---------------------------------------------------------------|
B|---5-5-7-7--11-11--14-14--16-16--14--16-16--14-14--11-11--7-7--|
G|---4-4-6-6--11-11--13-13--15-15--13--15-15--13-13--11-11--6-6--|
D|---------------------------------------------------------------|
A|---------------------------------------------------------------|
E|---------------------------------------------------------------|

PART 2


e|--------------------------------------------------(FADE OUT)--|
B|--5--5-5------------9--7--7/5-5-5-5---------------------------|
G|---------4--9--11-------------------4--9--11------------------|
D|--------------------------------------------------------------|
A|--------------------------------------------------------------|
E|--------------------------------------------------------------|

THE END…that took a while!

If you want to master The Panic Division Day You Left guitar chords, The 5 chords we’ll look at are the C major, A major, G major, E major, and D major.
The reason we use all major chords is that the minor versions of any of these chords just lack tiny adjustments.
Each one of those minor chords is completely based on its major counterpart

The more you proceeding, the easier guitar will feel to play Day You Left. Guitar is hard to learn in the beginning, but gets easier the more time you stick with it.

Leave a Comment