Inside Of You by The Maine Guitar Chords

When you looking for Inside Of You guitar chords, you have come to the perfect site.
You can play Inside Of You by The Maine using guitar or guitar.
This song by The Maine can also be played by that device.
=

Inside Of You guitar chords has rhythm and included in Other Songs album.
You can also find other musical style, as well as jazz guitar chords, country music guitar chords, pop guitar chords, world music guitar chords, and rock guitar chords here.

Inside Of You by The Maine Guitar Chords


I based this off of the live acoustic video on youtube. Im pretty sure its right,
i dont want to say 100% because the last guy said that was wrong.. Sometimes i put:


E-x-----0-----|
B-3-----3-----|
G-2-----2-----| I did that because you can only hear the e string ringing
D-0-----0-----| for half of the chord.
B-0-----0-----|
E-0-----0-----|

Enjoy..

Intro:


E-------0------------------------|
B--------------------------------|
G---2-----2---2---2---2---1---1--| Im on a trip..
D-0---0-----0---4---4---2---2----|
B--------------------------------|
E--------------------------------|

Then last time through:


E-------0-------------0----------|
B--------------------------------|
G---2-----2---2---2-----2---1----|
D-0---0-----0---4---4-----2------|
B--------------------------------|
E--------------------------------|

Your 21 I see.. barely sober


E-x-----0-----x-------------------|
B-3-----3-----2-------------------|
G-2-----2-----2-----1-------------|
D-0-----0-----4-----2-------------|
B-0-----0-----4-----2-------------|
E-0-----0-----2-------------------|

…Then you said


E-x-----0---------------------|
B-3-----3---------------------|
G-2-----2-------1-------------|
D-0-----0-------2-------------|
B-0-----0-------2-------------|
E-0-----0---------------------|

(chorus)

Nooooooowooooaaaa..never..be inside of you
[ Tab from: http://www.guitartabs.cc/tabs/t/the_maine/inside_of_you_acoustic_tab_ver_3.html ]


E-x----------0---------------|
B-2----------3---------------|
G-2-----1----2-----2------1--|
D-4-----2----------2------2--|
B-4-----2-----------------2--|
E-2--------------------------|

I know…fall …waiting..all


E-x--------0-------x--------------------|
B-3--------0-------2--------------------|
G-2--------4-------2--------1-----------|
D-0--------4-------4--------2-----------|
B-0--------2-------4--------2-----------|
E-0--------0-------2--------------------|

I know I know.. inside you..inside of youu


E-x-------------0-------x-----------------------|
B-3-------------0-------2-----------------------|
G-2-------------4-------2-----------1-----------|
D-0-------------4-------4-----------2-----------|
B-0-------------2-------4-----------2-----------|
E-0-------------0-------2-----------------------|

Repeat intro until..

so dont say..just wanna run away.


E--0---------x-------------------|
B--3---------2-------------------|
G--2---------2----------1--------|
D--0---------4----------2--------|
B--0---------4----------2--------|
E--0---------2-------------------|

..Then you said


E-x-----0---------------------|
B-3-----3---------------------|
G-2-----2-------1-------------|
D-0-----0-------2-------------|
B-0-----0-------2-------------|
E-0-----0---------------------|

Chorus… then he does

0 0 0
0 0 0
2 x alot then some kind of 7 thing then 1 thing?..
0 5 2
0 0 0

Then Chorus again..

THE END


 

 

If you want to master The Maine Inside Of You guitar chords, The 5 chords we’ll look at are the C major, A major, G major, E major, and D major.
The reason we use all major chords is that the minor versions of any of these chords just lack tiny adjustments.
Every of those minor chords is quite based on its major counterpart

The more you proceeding, the simple guitar will feel to play Inside Of You. Guitar is not easy to learn in the beginning, but gets easier the longer you stick with it.

Leave a Comment