Story to Tell by The Burning Hell Guitar Chords

If you are looking for Story to Tell guitar chords, you already visit to the best place.
You can play Story to Tell by The Burning Hell using guitar or guitar.
This song by The Burning Hell can also be played by that device.
=

Story to Tell guitar chords has Boléro swing and included in People (2013) album.
You can also find alternative musical style, as well as jazz guitar chords, country music guitar chords, pop guitar chords, world music guitar chords, and rock guitar chords here.

Story to Tell by The Burning Hell Guitar Chords


As recorded by Death
(From the 1998 Album THE SOUND OF PERSEVERANCE)

Transcribed by livingzombie

Words and Music by Chuck Schuldiner

Gtr I (D G C F A D) – ‘Chuck Schuldiner’
Gtr II (D G C F A D) – ‘Shannon Hamm’
Gtr III (D G C F A D) – ‘Solo Fills’

Intro
Q148

[4/4] Gtr I
H. E E E E E E H H. E E E E E E H


|-------------|--------------|-------------|--------------|
|-------------|--------------|-------------|--------------|
|---------5S7-|-7s5-5s9-9----|---------7S9-|-9s7-7-7-7----|
|-2-----------|--------------|-2-----------|--------------|
|-2-------3S5-|-5s3-3s7-7----|-2-------5S7-|-7s5-5-5-5----|
|-0-----------|--------------|-0-----------|--------------|

|
| Gtr II
| H. E E E E E E H H. E E E E E E H


|-------------|--------------|-------------|--------------|
|-------------|--------------|-------------|--------------|
|-------------|--------------|-------------|--------------|
|-2-------5S7-|-7s5-5s9-9----|-2-------7S9-|-9s7-7-7-7----|
|-2-------3S5-|-5s3-3s7-7----|-2-------5S7-|-7s5-5-5-5----|
|-0-----------|--------------|-0-----------|--------------|

G5 F#5 G5 E5 F#5 A5 N.C.
~~~~~~~~~ ~~
H. E E E E E E H H. E E +Q. E E E Q


|----------------|-----------------|---------14-15-|-(15)----------------||
|----------------|-----------------|---------------|--------17-16--------||
|---------/11S12-|-12s9-9s11-11----|---------------|--------------17-16--||
|-5--------------|-----------------|-7-------------|---------------------||
|-5--------/9S10-|-10s7-7s9--9----|-7-------------|---------------------||
|-3--------------|-----------------|-5-------------|---------------------||

|
| ~~~~~~~~~ ~~
| H. E E E E E E H H. E E +Q. E E E Q


|----------------|-----------------|---------------|---------------------||
|----------------|-----------------|----------0--1-|--(1)----------------||
|----------------|-----------------|---------------|---------2--1--------||
|-5-------/11S12-|-12s9-9s11-11----|-7-------------|---------------3--2--||
|-5--------/9S10-|-10s7-7s9--9----|-7-------------|---------------------||
|-3--------------|-----------------|-5-------------|---------------------||

Solo (Schuldiner)
~~~ ~~
H. E E E E E E H


|-12-------12s14-|-14s15-15s14-14----|
|----------------|-------------------|
|----------------|-------------------|
|----------------|-------------------|
|----------------|-------------------|
|----------------|-------------------|

|
| H. E E E E E E H


|----------------|-------------------|
|----------------|-------------------|
|----------------|-------------------|
|--2--------5--7-|--7s5--5s9--9----|
|--2--------3--5-|--5s3--3s7--7----|
|--0-------------|-------------------|

~~~~~~~~~~~~~~~~~
E E H. +Q e e e e e e


|-14h15-15---------|-(15)--15S17-17-15-15-19-|
|------------------|-------------------------|
|------------------|-------------------------|
|------------------|-------------------------|
|------------------|-------------------------|
|------------------|-------------------------|

|
| H. E E E E E E H


|------------------|-------------------------|
|------------------|-------------------------|
|------------------|-------------------------|
|--2-----------7S9-|---9s7--7--7--7----------|
|--2-----------5S7-|---7s5--5--5--5----------|
|--0---------------|-------------------------|

~~~
H. Q +H +Q +E E


|-19--------24b27|(24)-------(24)r(24)----|
|---------------------|-----------------------20-|
|---------------------|--------------------------|
|---------------------|--------------------------|
|---------------------|--------------------------|
|---------------------|--------------------------|

|
| H. E E E E E E H


|---------------------|--------------------------|
|---------------------|--------------------------|
|---------------------|--------------------------|
|--5-------/11-----12-|--12s9-9s11--11-----------|
|--5--------/9-----10-|--10s7-7s9---9-----------|
|--3------------------|--------------------------|

A5 N.C.
~~~~~~~~~~ ~~~ ~~
E E H +E E Q. E H


|---------------------|------------------||
|-20h22-22----(22)-20-|-20----19-19------||
|---------------------|------------------||
|---------------------|------------------||
|---------------------|------------------||
|---------------------|------------------||

|
| ~~~~~~~~ ~
| H. E E +Q. E E E Q


|---------------------|------------------||
|---------------0---1-|-(1)--------------||
|---------------------|--------2--1------||
|--7------------------|-------------3-2--||
|--7------------------|------------------||
|--5------------------|------------------||

Verse
Q137
$

[5/4] Gtrs I, II


PM--| PM----| PM

W +Q E E E E E E E E E E


||----------------|---------------------|
||o---------------|---------------------|
||----------------|---------------------|
||--2--------(2)--|-------4---------5---|
||o-2--------(2)--|-------2---------3---|
||--0--------(0)--|-0-0-0---0-0-0-0---0-|


PM--| PM----| PM

W +Q E E E E E E E E E E


|---------------|-----------------------||
|---------------|----------------------o||
|---------------|-----------------------||
|-2--------(2)--|-------7---------5-----||
|-2--------(2)--|-------5---------3----o||
|-0--------(0)--|-0-0-0---0-0-0-0---0---||

Chorus
Q85
E5 C5B5 D5 A5 E5 C5B5 D5 N.C.
[4/4] Gtr I
PM PM PM PM| ~~~~~~~~~~~~~~
H +E E E E Q. E +Q. E H +E E E E Q S S E +E E +E E


||-----------------|----------------|----------------|-----------------------||
||o----------------|----------------|----------------|----------------------o||
||-----------5-4---|-7--------------|----------5-4---|-7---------------------||
||--2----(2)-5-4---|-7----7-(7)-----|-2----(2)-5-4---|-7------5-(5)-4-(4)----||
||o-2----(2)-3-2---|-5----7-(7)-----|-2----(2)-3-2---|-5--3-3-------------5-o||
||--0----(0)-----0-|------5-(5)---0-|-0----(0)-----0-|-----------------------||

|
| Gtr II
| PM PM PM PM| ~~~~~~~~~~~~~~
| H +E E E E Q. E +Q. E H +E E E E Q S S E +E E +E E


||-----------------|----------------|----------------|-----------------------||
||o----------------|----------------|----------------|--------8-(8)-7-(7)---o||
||-----------5-4---|-7--------------|----------5-4---|-7--5-5-------------7--||
||--2----(2)-5-4---|-7----7-(7)-----|-2----(2)-5-4---|-7---------------------||
||o-2----(2)-3-2---|-5----7-(7)-----|-2----(2)-3-2---|-5--------------------o||
||--0----(0)-----0-|------5-(5)---0-|-0----(0)-----0-|-----------------------||

Gtr I
PM
[+E]


|-------------------------------------------------------|
|-------------------------------------------------------|
|-----------------------------------5-----4-------------|
|-2-------------------------(2)-----5-----4-------------|
|-2-------------------------(2)-----3-----2-------------|
|-0-------------------------(0)--------------------0----|

|
| Gtr II
| PM
| H +E E E E


|-------------------------------------------------------|
|-------------------------------------------------------|
|-----------------------------------5-----4-------------|
|-2-------------------------(2)-----5-----4-------------|
|-2-------------------------(2)-----3-----2-------------|
|-0-------------------------(0)--------------------0----|

|
| Gtr III
| S S S S T T S S S S S S S T T S S S


|----------------------------------------------------10-|
|---------10-10h12p10-----------------10-10h12p10-------|
|-9-11-12-------------12-11--9--11-12-------------12----|
|-------------------------------------------------------|
|-------------------------------------------------------|
|-------------------------------------------------------|

PM
Q. E +Q. E


|----------------------------------------------------------|
|----------------------------------------------------------|
|-7--------------------------------------------------------|
|-7---------------------7----(7)---------------------------|
|-5---------------------7----(7)---------------------------|
|-----------------------5----(5)--------------------0------|

|
| PM
| Q. E +Q. E


|----------------------------------------------------------|
|----------------------------------------------------------|
|-7--------------------------------------------------------|
|-7---------------------7----(7)---------------------------|
|-5---------------------7----(7)---------------------------|
|-----------------------5----(5)--------------------0------|

|
| S S S S T T S S S S S S S T T S S S


|-----------------------------------------------------10---|
|----------10-10h12p10-----------------10-10h12p10---------|
|-9--11-12-------------12-11--9--11-12-------------12------|
|----------------------------------------------------------|
|----------------------------------------------------------|
|----------------------------------------------------------|

PM
[+E]


|-------------------------------------------------------|
|-------------------------------------------------------|
|-----------------------------------5-----4-------------|
|-2-------------------------(2)-----5-----4-------------|
|-2-------------------------(2)-----3-----2-------------|
|-0-------------------------(0)--------------------0----|

|
| PM
| H +E E E E


|-------------------------------------------------------|
|-------------------------------------------------------|
|-----------------------------------5-----4-------------|
|-2-------------------------(2)-----5-----4-------------|
|-2-------------------------(2)-----3-----2-------------|
|-0-------------------------(0)--------------------0----|

|
| S S S S T T S S S S S S S T T S S S


|----------------------------------------------------10-|
|---------10-10h12p10-----------------10-10h12p10-------|
|-9-11-12-------------12-11--9--11-12-------------12----|
|-------------------------------------------------------|
|-------------------------------------------------------|
|-------------------------------------------------------|

PM—| ~~~~~~~~~~~~~~~~~~~~~~~~~~~~~~~~~
Q S S E +E E +E E


|------------------------------------------------------------------||
|------------------------------------------------------------------||
|--7---------------------------------------------------------------||
|--7-----------------------------5--------(5)-------4---(4)--------||
|--5-------------------3----3-----------------------------------5--||
|------------------------------------------------------------------||

|
| PM—| ~~~~~~~~~~~~~~~~~~~~~~~~~~~~~~~~~
| Q S S E +E E +E E


|------------------------------------------------------------------||
|--------------------------------8--------(8)-------7---(7)--------||
|--7-------------------5----5-----------------------------------7--||
|--7---------------------------------------------------------------||
|--5---------------------------------------------------------------||
|------------------------------------------------------------------||

|


| PM-----------------------------------| ~~

| |–3–|
| T T T T T T T T T T T T T T T T S S S S S S S E


|------------------------------------------------------------------||
|-----------------------------------------13p12p10------12--13-12--||
|-12-11-9-9-12-11-9-9-12-11-9-9-12-11-9-9----------12-9------------||
|------------------------------------------------------------------||
|------------------------------------------------------------------||
|------------------------------------------------------------------||

Bridge
N.C.
Gtrs I, II


PM------------| PM----| PM|

T T T T T T T T E S S S S E S S E 3x


||-------------------------------------------||
||o-----------------(5)---------(7)-----(8)-o||
||-------------------------------------------||
||-------------------2-----------4-------5---||
||o-----------------------------------------o||
||--0-0-0-0-0-0-0-0-----0-0-0-0-----0-0------||
PM------------| PM----|

T T T T T T T T E S S S S S S S S e


|-----------------------------(7)-----(7)---------|
|-----------------(5)-------------(8)-----(8)-(7)-|
|------------------------------4-------4----------|
|------------------2---------------5-------5---4--|
|-------------------------------------------------|
|-0-0-0-0-0-0-0-0-----0-0-0-0---------------------|
PM------------| PM----| PM|

T T T T T T T T E S S S S E S S E


||------------------------------------------|
||o-----------------(5)---------(7)-----(8)-|
||------------------------------------------|
||-------------------2-----------4-------5--|
||o-----------------------------------------|
||--0-0-0-0-0-0-0-0-----0-0-0-0-----0-0-----|
PM------------| PM----| PM|

T T T T T T T T E S S S S E S S E


|-------------------------------------------||
|-----------------(5)---------(7)-----(8)--o||
|-------------------------------------------||
|------------------2-----------4-------5----||
|------------------------------------------o||
|-0-0-0-0-0-0-0-0-----0-0-0-0-----0-0-------||

Interlude
Q.72
6/8
Gtrs I, II
~~~~~~~~~~~~~~~~~~~~~
H. E E E +Q.


|------------||---------------------------------|
|------------||o--------------------------------|
|------------||---------------------------------|
|------------||-------------4---(4)-------------|
|------------||o-------2------------------------|
|------------||---0-----------------------------|

|
| Gtr III
| | ~~
| E H E S S S S S S S S S S S S


|------------||---------------------------------|
|----12------||o-12-8-10-8------12--8-10-8------|
|------------||------------11-9------------11-9-|
|------------||---------------------------------|
|------------||o--------------------------------|
|------------||---------------------------------|

~~~~~
+H.


|---------------------------------|
|---------------------------------|
|---------------------------------|
|-(4)-----------------------------|
|---------------------------------|
|---------------------------------|

|
| S S S S S S S S S S S S


|---------------------------------|
|-12--8-10-8------12-8-10-8-------|
|------------11-9-----------11-9--|
|---------------------------------|
|---------------------------------|
|---------------------------------|

~~~~~~~~~~~~~~~~~~~~~~~~~~~
E E E +Q. +H.


|----------------------------------|----------------------------------|
|----------------------------------|----------------------------------|
|----------------------------------|----------------------------------|
|--0-----2-------------------------|----------------------------------|
|-------------3---(3)--------------|-(3)------------------------------|
|----------------------------------|----------------------------------|

|
| S S S S S S S S S S S S S S S S S S S S S S S S


|----------------------------------|----------------------------------|
|-13-12-10-8------13--12-10-8------|-13--12-10-8------13-12-10-8------|
|------------11-9-------------11-9-|-------------11-9------------11-9-|
|----------------------------------|----------------------------------|
|----------------------------------|----------------------------------|
|----------------------------------|----------------------------------|

1.
~~~~~~~~~~~~~~~~~~~~~~~~~~
E E E +Q. +H.


|--------------------------------|--------------------------------|
|--------------------------------|--------------------------------|
|--------------------------------|--------------------------------|
|------------4---(4)-------------|-(4)----------------------------|
|-------2------------------------|--------------------------------|
|--0-----------------------------|--------------------------------|

|
| S S S S S S S S S S S S S S S S S S S S S S S S


|--------------------------------|--------------------------------|
|-12-8-10-8------12--8-10-8------|-12--8-10-8------12-8-10-8------|
|-----------11-9------------11-9-|------------11-9-----------11-9-|
|--------------------------------|--------------------------------|
|--------------------------------|--------------------------------|
|--------------------------------|--------------------------------|

~~~~~~~~~~~~~~~~~~~~~~~~~~~~~~~~~~~~~~~~
E E E +Q.


|-----------------------------------------------------------------|
|-----------------------------------------------------------------|
|-----------------------------------------------------------------|
|--0-----------2--------------------------------------------------|
|--------------------------3-------(3)----------------------------|
|-----------------------------------------------------------------|

|
| T T T T T T T T T T T T T T T T T T T T T T T T


|-----------------------------------------------------------------|
|-13-13-13-12-12-12-10-10-10-8-8-8--------------------------------|
|----------------------------------11--11-11-9-9-9-7-7-7----------|
|--------------------------------------------------------10-10-10-|
|-----------------------------------------------------------------|
|-----------------------------------------------------------------|

~~~~~
+H.


|------------------------------------------------------||
|-----------------------------------------------------o||
|------------------------------------------------------||
|------------------------------------------------------||
|-(3)-------------------------------------------------o||
|------------------------------------------------------||

|
| ~~
| T T T T T T T T T T T T T T T T T T T T E


|------------------------------------------------------||
|-------------------------------------------8-13-8-12-o||
|---------------7-7-9-9-------7-7-9-9-11-11------------||
|--9--9-9-10-10---------10-10--------------------------||
|-----------------------------------------------------o||
|------------------------------------------------------||

2.
~~~~~~~~~~~~~~~~~~~~~~~~~~
E E E +Q. +H.


|--------------------------------|-------------------------||
|--------------------------------|-------------------------||
|--------------------------------|-------------------------||
|------------4---(4)-------------|-(4)---------------------||
|-------2------------------------|-------------------------||
|--0-----------------------------|-------------------------||

|
| ~~
| S S S S S S S S S S S S e T T S e e e E


|--------------------------------|-------------------------||
|-12-8-10-8------12--8-10-8------|-12--10h12p10------------||
|-----------11-9------------11-9-|--------------11-12-9-11-||
|--------------------------------|-------------------------||
|--------------------------------|-------------------------||
|--------------------------------|-------------------------||

Bridge
Q120
F#5 N.C.
[4/4] Gtr I
PM| ~~ PM—-| PM-
S S Q. S S E E. S S S Q. S S E E. S


|---------------------|---------------------|
|---------------------|---------------------|
|---------------------|---------------------|
|---------------------|---------------------|
|-4-4--------4-5-4----|-4----------4-5-4----|
|-2-2------2--------5-|---5------2--------5-|

|
| Gtr II
| PM| ~~ PM—-| ~~ PM-
| S S Q. S S E E. S S S Q. S S E E. S


|---------------------|---------------------|
|---------------------|---------------------|
|---------------------|---------------------|
|------------6-7-6----|-6----------6-7-6----|
|-4-4------4--------7-|---7------4--------7-|
|-2-2-----------------|---------------------|


---| PM----| PM

S S Q. S S E E. S S S Q. S S E E. S


|---------------------|----------------------|
|---------------------|----------------------|
|---------------------|-------------------6--|
|---------------------|-------------------4--|
|-4----------4-5-4----|-4----------4-5-4-----|
|---2------2--------5-|---5------2-----------|

|


|---| ~~ PM----| ~~ PM

| S S Q. S S E E. S S S Q. S S E E. S


|---------------------|----------------------|
|---------------------|----------------------|
|---------------------|-------------------6--|
|-6----------6-7-6----|-6----------6-7-6--4--|
|---4------4--------7-|---7------4-----------|
|---------------------|----------------------|

N.C. F#5 N.C. F#5
Gtrs I, II


PM-| ~~~~~~~ PM------| PM

S S Q. S S E +E. S S S Q. S S S S S S S S


|--------------------------|---------------------------------|
|--------------------------|---------------------------------|
|--6--6------------------6-|--6--6----------4-------------6--|
|--4--4------4h5-4--(4)--4-|--4--4------4h5---5---4--2----4--|
|--------------------------|---------------------------------|
|--------------------------|---------------------------------|

|
| Gtr III
| ~~~~~~~~~~~~~~~~~~~~~ ~~~~~~~~~~~~~~~~~~~~~~~
| H. +E. S H. +E. S


|--------------------------|---------------------------------|
|--------------------------|---------------------------------|
|-11---------------(11)-11s|12-----------------(12)-----12s|
|--------------------------|---------------------------------|
|--------------------------|---------------------------------|
|--------------------------|---------------------------------|

N.C. F#5 N.C. F#5


PM-| ~~~~~~~ PM------| PM

S S Q. S S E +E. S S S Q. S S S S S S S S


|--------------------------|--------------------------------|
|--------------------------|--------------------------------|
|--6--6------------------6-|--6--6----------4-------------6-|
|--4--4------4h5-4--(4)--4-|--4--4------4h5---5---4--2----4-|
|--------------------------|--------------------------------|
|--------------------------|--------------------------------|

|
| ~~~~~~~~~~~~~~~~~~~~~ ~~~~~~~~~~~~~~~~~~~~~~~
| H. +E. S H. +E. S


|--------------------------|--------------------------------|
|--------------------------|--------------------------------|
|-14---------------(14)-14s|12-----------------(12)-----12-|
|--------------------------|--------------------------------|
|--------------------------|--------------------------------|
|--------------------------|--------------------------------|

N.C. F#5 N.C. F#5


PM-| PM PM ~~~~~~~ PM------| PM PM PM

S S E E S S S S E +E. S S S E E S S S S S S S S S S


|-----------------------------|------------------------------------|
|-----------------------------|------------------------------------|
|--6--6---6-----------------6-|--6--6---6---------4-------------6--|
|--4--4---4---4-4h5-4--(4)--4-|--4--4---4---4-4h5---5---4--2----4--|
|-----------------------------|------------------------------------|
|-----------------------------|------------------------------------|

|
| ~~~~~~~~~~~~~~~~~~~~~~~~ ~~~~~~~~~~~~~~~~~~~~~~~~~~
| H. +E. S H. +E. S


|-----------------------------|------------------------------------|
|-----------------------------|------------------------------------|
|-11------------------(11)-11s|12--------------------(12)-----12s|
|-----------------------------|------------------------------------|
|-----------------------------|------------------------------------|
|-----------------------------|------------------------------------|

N.C. F#5 N.C. F#5


PM-| PM PM ~~~~~~PM------| PM PM PM

S S E E S S S S E +E. S S S E E S S S S S S S S S S


|--------------------------|------------------------------------|
|--------------------------|------------------------------------|
|-6--6---6---------------6-|--6--6---6---------4-------------6--|
|-4--4---4---4-4h5-4-(4)-4-|--4--4---4---4-4h5---5---4--2----4--|
|--------------------------|------------------------------------|
|--------------------------|------------------------------------|

|
| ~~~~~~~~~~~~~~~~~~~~~~~ ~~~~~~~~~~~~~~~~~~~~~~~~~~
| H. +E. S H. +E. S


|--------------------------|------------------------------------|
|--------------------------|------------------------------------|
|-9------------------(9)-9s|12--------------------(12)-----12s|
|--------------------------|------------------------------------|
|--------------------------|------------------------------------|
|--------------------------|------------------------------------|

N.C. F#5 N.C. F#5


PM-| PM PM ~~~~~~~ PM------| PM PM PM

S S E E S S S S E +E. S S S E E S S S S S S S S S S


|-----------------------------|------------------------------------|
|-----------------------------|------------------------------------|
|--6--6---6-----------------6-|--6--6---6---------4-------------6--|
|--4--4---4---4-4h5-4--(4)--4-|--4--4---4---4-4h5---5---4--2----4--|
|-----------------------------|------------------------------------|
|-----------------------------|------------------------------------|

|
| ~~~~~~~~~~~~~~~~~~~~~~~~ ~~~~~~~~~~~~~~~~~~~~~~~~~~
| H. +E. S H. +E. S


|-----------------------------|------------------------------------|
|-----------------------------|------------------------------------|
|-11------------------(11)-11s|12--------------------(12)-----12s|
|-----------------------------|------------------------------------|
|-----------------------------|------------------------------------|
|-----------------------------|------------------------------------|

Fine
N.C. F#5
PM-| PM PM ~~~~~~ [2/4] PM|
S S E E S S S S E +Q S S Q.


|--------------------------|-----------||
|--------------------------|-----------||
|-6--6---6-----------------|--6-6------||
|-4--4---4---4-4h5-4-(4)---|--4-4------||
|--------------------------|-----------||
|--------------------------|-----------||

|
| ~~~~~~~~~~~~~~~~~~~~~~~ ~~
| H. +E. S E Q.


|--------------------------|-----------||
|--------------------------|-----------||
|-9------------------(9)-9s|11--------||
|--------------------------|-----------||
|--------------------------|-----------||
|--------------------------|-----------||

Solo (Hamm)
Q147

[4/4] Gtr I
W W


|-----------------------|-----------------------|
|-----------------------|-----------------------|
|-----------------------|---7-------------------|
|--5--------------------|---7-------------------|
|--5--------------------|---5-------------------|
|--3--------------------|-----------------------|

|
| Gtr II
| ~~~~~~~~~~~~~ PM PM
| H. +E E +Q. E E E E E


|-----------------------|-----------------------|
|-----------------------|-----------------------|
|-----------------------|-----------19----19s18-|
|-17-------(17)-b18r|(16)---17----17-------|
|-----------------------|-----------------------|
|-----------------------|-----------------------|

W H H


|---------------------------|---------------------------|
|---------------------------|---------------------------|
|---------------------------|---------------------------|
|--4------------------------|---2------------4----------|
|--4------------------------|---2------------4----------|
|--2------------------------|---0------------2----------|

|
| PM PM PM PM
| E E E E E E E E E E E E E E E E


|---------------------------|---------------------------|
|---------------------------|---------13s15-15s17-17s15-|
|----18s16----16s14----s|----12s14-14s16-16s14-|
|-16-------14-------12------|------12-------------------|
|---------------------------|---------------------------|
|---------------------------|---------------------------|

W W


|----------------|-------------------------------|
|----------------|-------------------------------|
|----------------|---7---------------------------|
|--5-------------|---7---------------------------|
|--5-------------|---5---------------------------|
|--3-------------|-------------------------------|

|
| ~~~
| H. E E Q. Q. Q


|----------------|-------------------------------|
|-15-------15-17-|--17b19r17b19r17b19r|
|-12-------12-14-|-b16rb16rb16r|
|----------------|-------------------------------|
|----------------|-------------------------------|
|----------------|-------------------------------|

N.C.


PM----------------------------------------------

S S S S S S S S S S S S S S S S


|--------------------------------------------------|
|--------------------------------------------------|
|--------------------------------------------------|
|--------------------------------------------------|
|--------------------------------------------------|
|---2-----2-2-2-2-2-2-2--2--2--2--2--2-----2--2--2-|

|
| ~~~~~~~
| +H S S S S T T S S S


|--------------------------------------------------|
|-(17)b19------------------------------------------|
|-(14)b16------------------------16-16h17p16-------|
|-----------------------16-17-19-------------19-17-|
|--------------------------------------------------|
|--------------------------------------------------|
-------------------------------------------------------------------|

S S S S S S S S S S S S S S S S


|------------------------------------------------------------------------|
|------------------------------------------------------------------------|
|------------------------------------------------------------------------|
|------------------------------------------------------------------------|
|------------------------------------------------------------------------|
|--2--2--2--2--2-----2--2--2--2----2-----2----2-----2----2-----2----2----|

|


| |--------6---------| |--------6---------|

| S S S S T T S S S S S S S S S S S S S S S


|------------------------------------------------------------------------|
|------------------------------------------------------------------------|
|----------16-17h19p17-16------------------------------------------------|
|-16-17-19----------------19-16-17---19-17-16------17-16---17-16---------|
|-----------------------------------------------19---------------19---17-|
|------------------------------------------------------------------------|

W W


|-----------------------|-------------------------|
|-----------------------|-------------------------|
|-----------------------|--7----------------------|
|--5--------------------|--7----------------------|
|--5--------------------|--5----------------------|
|--3--------------------|-------------------------|

|
| ~~~~~~~~ ~~~
| Q. Q S S E E Q. S S E E E E


|-----------------------|-------------------------|
|-15----15--15-15-15h17-|-------------------14h15-|
|-----------------------|-14----14-14-14h16-------|
|-16----16--16-16-16h17-|-------------------16h17-|
|-----------------------|-17----17-17-17h19-------|
|-----------------------|-------------------------|

W H H


|-------------------------|-------------------------------------|
|-------------------------|-------------------------------------|
|-------------------------|-------------------------------------|
|--4----------------------|--2-----------------------4----------|
|--4----------------------|--2-----------------------4----------|
|--2----------------------|--0-----------------------2----------|

|


| ~~~ PM------|
| |----3----|

| Q. S S E E E E E S S S E E E E E E


|-------------------------|-------------------------------------|
|-14----------------------|-------------------------------------|
|-------------------------|-------------------------------------|
|-16----16h17-19-17-16----|-17-hp----------------16-|
|----------------------19-|-------------------19-17-16-17-19----|
|-------------------------|-------------------------------------|

W


|-------------------------------------------------|
|-------------------------------------------------|
|-------------------------------------------------|
|--5----------------------------------------------|
|--5----------------------------------------------|
|--3----------------------------------------------|

|
| PM| PM| PM| PM|
| S S S S S S S S S S S S S S S S


|-------------------------------------------------|
|-------------------------------------------------|
|-------------------------------------------------|
|-17p16-------17p16-------17p16-------17p16-------|
|-------19-17-------19-17-------19-17-------19-17-|
|-------------------------------------------------|

W


|--------------------------------------------------|
|--------------------------------------------------|
|--7-----------------------------------------------|
|--7-----------------------------------------------|
|--5-----------------------------------------------|
|--------------------------------------------------|

|
| PM| PM| PM| PM|
| S S S S S S S S S S S S S S S S


|--------------------------------------------------|
|--------------------------------------------------|
|--------------------------------------------------|
|-19p16-------19p16-------21p16-------21p16--------|
|-------19-17-------19-17-------19-17-------19-17--|
|--------------------------------------------------|

N.C.


PM----------------------------------------------------------------

S S S S S S S S S S S S S S S S


|-------------------------------------------------------------------|
|-------------------------------------------------------------------|
|-------------------------------------------------------------------|
|-------------------------------------------------------------------|
|-------------------------------------------------------------------|
|--2-----2-2-2---2--2---2------2---2--2---2------2---2--2---2----2--|

|
| Q +E +E +E +E +E S S


|-------------------------------------------------------------------|
|-------------------------------------------------------------------|
|-19b21(19)r(19)b21(19)r(19)b21(19)r(16)------|
|--------------------------------------------------------------(18)-|
|-------------------------------------------------------------------|
|-------------------------------------------------------------------|
----------------------------------------------|

S S S S S S S S S S S S S S S S


|-------------------------------------------------||
|-------------------------------------------------||
|-------------------------------------------------||
|-------------------------------------------------||
|-------------------------------------------------||
|--2-----2-2-2---2--2---2-----2-2--2-2-2-2-2-2-2--||

|
| Q +E +E H


|-------------------------------------------------||
|-22b24(22)r(22)b24---------------------||
|-19b21(19)r(19)b21---------------------||
|-------------------------------9----------------||
|-------------------------------9----------------||
|-------------------------------9----------------||

Solo (Schuldiner)
Q104
~~~
S S S S S S S S S S S E. S S


|---------------------------------------------|
|-19-19---19-19-------------20-20-20----------|
|-16-16---16-16-21-21-21-21-17-17-17-------16-|
|---------------19-19-19-19-------------14----|
|---------------------------------------------|
|---------------------------------------------|

|


| PM------------------------------------------

| S S S S S S S S S S S S E S S


|---------------------------------------------|
|---------------------------------------------|
|---------------------------------------------|
|---------------------------------------------|
|--9--9----9--9--7--7--7--7-10-10-10-----9--9-|
|--7--7----7--7--5--5--5--5--8--8--8-----7--7-|

~~
S S S S S S S S S S S S E +E


|--------------20-------19-------17-------------|
|-17-/20----------19-------17-------16----------|
|--------19----------17-------16----------------|
|-----------17-------------------------19-(19)-|
|-----------------------------------------------|
|-----------------------------------------------|

|


|-----------------------------------|

| S S S S S S S S S S S S Q


|-----------------------------------------------|
|-----------------------------------------------|
|-----------------------------------------------|
|-----------------------------------------------|
|--9---9-----9--9--7--7--7--7-10-10-10----------|
|--7---7-----7--7--5--5--5--5--8--8--8----------|

~~~~~~~~~~~~~


|------6-------| |------6-------| |------6-------|

T T T T T T T T T T T T T T T T T T S T T E +E Q


|-14-14-14-14-17-14-15-14-14-15-14-14-14-14-17-14-17-14-14-12-14-17b19----(17)----17b19|
|--------------------------------------------------------------------------------------------|
|--------------------------------------------------------------------------------------------|
|--------------------------------------------------------------------------------------------|
|--------------------------------------------------------------------------------------------|
|--------------------------------------------------------------------------------------------|

|


| PM--------------------------------------------------------------------------------------|

| S S S S S S S S S S S S E S S


|--------------------------------------------------------------------------------------------|
|--------------------------------------------------------------------------------------------|
|--------------------------------------------------------------------------------------------|
|--------------------------------------------------------------------------------------------|
|--9--------9-----------------9--------9--------7--------7--7-----7----10--10--10--------9-9-|
|--7--------7-----------------7--------7--------5--------5--5-----5-----8---8---8--------7-7-|

~~


|-----6------| |------6-------| |------6-------| |------6-------| |------6-------| |------6-------|

+S T T T T T T T T T T T T T T T T T T T T T T T T T T T T T T T T T T Q


|-(17)r19-18-16-14-16-14------------------------------------------------------------------------------------------|
|------------------------17-17-16-16-17-16-14---------------------------------------------------------------------|
|---------------------------------------------16-15-13-15-13----13------------------------------------------------|
|------------------------------------------------------------16----16-14-13-14-13-14-13---------------------------|
|---------------------------------------------------------------------------------------16-14-16-17-16-14-12-14---|
|-----------------------------------------------------------------------------------------------------------------|

|


| PM----------------------------------------------------------------------------------------------|

| S S S S S S S S S S S S Q


|-----------------------------------------------------------------------------------------------------------------|
|-----------------------------------------------------------------------------------------------------------------|
|-----------------------------------------------------------------------------------------------------------------|
|-----------------------------------------------------------------------------------------------------------------|
|---9------9-----------------9--------9--------7--------7--------7--------7-------10-------10-------10------------|
|---7------7-----------------7--------7--------5--------5--------5--------5--------8--------8--------8------------|

S S S S S S S S S S S S S S S S


|-------------------------------------------------|
|-------------------------------------------------|
|-14s16-16s17-17s16-16-17-17-17-17s19-19s17-17s19-|
|-------------------------------------------------|
|-12s14-14s15-15s14-14-15-15-15-15s17-17s15-15s17-|
|-------------------------------------------------|

|


| PM----------------------------------------------

| S S S S S S S S S S S S E S S


|-------------------------------------------------|
|-------------------------------------------------|
|-------------------------------------------------|
|-------------------------------------------------|
|--9--9-----9--9--7--7--7--7-10-10-10--------9--9-|
|--7--7-----7--7--5--5--5--5--8--8--8--------7--7-|

~~
S S S S S S S S S S S S Q


|-----------------------------------------|
|-----------------------------------------|
|-19s21-21s19-19s17-17s16-16s14-14s16-16--|
|-----------------------------------------|
|-17s19-19s17-17s15-15s14-14s12-12s14-14--|
|-----------------------------------------|

|


|----------------------------------|

| S S S S S S S S S S S S Q


|-----------------------------------------|
|-----------------------------------------|
|-----------------------------------------|
|-----------------------------------------|
|--9--9-----9--9--7--7--7--7-10-10-10-----|
|--7--7-----7--7--5--5--5--5--8--8--8-----|

TP


|----3----| |-----3-----|

E E E S S S S E E E S. S. S


|---------------------------------14----20----14--------14-|
|------------------17-16-13--------------------------------|
|-16---12--------------------------------------------------|
|-----------14--------------16--------------------17-------|
|----------------------------------------------------------|
|----------------------------------------------------------|

|


| PM-------------------------------------------------------

| S S S S S S S S S S S S E S S


|----------------------------------------------------------|
|----------------------------------------------------------|
|----------------------------------------------------------|
|----------------------------------------------------------|
|--9-9---------9-9--7--7--7--7-10----10----10---------9--9-|
|--7-7---------7-7--5--5--5--5--8-----8-----8---------7--7-|

~~


|---3---| |------6-------| |------6-------| |------6-------| |------6-------| |------6-------|

S S S T T T T T T T T T T T T T T T T T T T T T T T T T T T T T T Q


|---15---14------------------------------------------------------------------------------------------------||
|-----------17-15-14-17-15-14-17-15-14---------------------------------------------------------------------||
|--------------------------------------16-16-14-14-16-14-------------14----------------14------------------||
|--------------------------------------------------------17-16-14-17----17-16-14-16-17----17-16-14-17-16---||
|----------------------------------------------------------------------------------------------------------||
|----------------------------------------------------------------------------------------------------------||

|


|--------------------------------------------------------------------------------------------|

| S S S S S S S S S S S S Q


|----------------------------------------------------------------------------------------------------------||
|----------------------------------------------------------------------------------------------------------||
|----------------------------------------------------------------------------------------------------------||
|----------------------------------------------------------------------------------------------------------||
|-9----9--------------9--------9--------7--------7--------7--------7-------10-------10-------10------------||
|-7----7--------------7--------7--------5--------5--------5--------5--------8--------8--------8------------||

Breakdown
Q105

[6/4] Gtrs I, II
PM| PM|
E S S E E W E S S E E W


|--------------------|----------------|
|--------------------|----------------|
|--------------------|----------------|
|-2-----2------------|-2-----2--------|
|-2-----2------------|-2-----2--------|
|-0-0-0-0------------|-0-0-0-0--------|

N.C.
[4/4] Gtr I
PM| ~ PM| ~~
S S Q S S H S S Q S S H


|-----------------|--------------------|
|-----------------|--------------------|
|-----3--3-4------|------3---3--4------|
|-----------------|--------------------|
|-----1--1-2------|------1---1--2------|
|-0-0-------------|-0-0----------------|

|
| Gtr II
| PM| ~ PM| ~~
| S S Q S S H S S Q S S H


|-----------------|--------------------|
|-----------------|--------------------|


 

 

If you want to master The Burning Hell Story to Tell guitar chords, The 5 chords we’ll look at are the C major, A major, G major, E major, and D major.
The reason we use all major chords is that the minor versions of any of these chords just require tiny adjustments.
Each one of those minor chords is completely based on its major counterpart

The more you practice, the smooth guitar will feel to play Story to Tell. Guitar is hard to study in the beginning, but gets easier the more time you stick with it.

Leave a Comment