Torn Into Enthrallment by Suffocation Guitar Chords

When you looking for Torn Into Enthrallment guitar chords, you just come to the perfect place.
You can play Torn Into Enthrallment by Suffocation using guitar or guitar.
This song by Suffocation can also be played by that instruments.
=

Torn Into Enthrallment guitar chords has pattern and included in Pierced From Within (1995) album.
You can also find other musical style, along with jazz guitar chords, country music guitar chords, pop guitar chords, world music guitar chords, and rock guitar chords here.

Torn Into Enthrallment by Suffocation Guitar Chords


Tuning (Low – High): Db Gb B E Ab Db

Clean Intro (1 & 3) (2)


|-------------------------|-------------------------|
|-------------------------|-------------------------|
|-------0---0-------------|-------0---0-------------|
|-----9---8---7---7---7---|-----9---8---7---7-------|
|---7-----------6---6---6-|---7-----------6---6---6-|
|-0-----------------------|-0-------------------7---|

[(4)]


|-------------------------|
|-------------------------|
|-------------------4-5-4-|
|-----5-----------4-------|
|---6---6---6---5---------|
|-7-------7---6-----------|

Repeat Intro

A (w/Distortion) Play 2 Times


|-------------------------|-------------------------|
|-2---9---8---2---7---7---|-2---9---8---2---7-------|
|-2-----7---7-2-----6---6-|-2-----7---7-2-----6---6-|
|-0-----------0-----------|-0-----------0-------7---|

pml….. pml….. pml….. pml…..

B1 (1 & 3) (2)


|-------------------------|-------------------------|
|-2---4---3---2---3---3---|-2---4---3---2---3-------|
|-2---2-5-1-4-2---1-4-1-4-|-2---2-5-1-4-2---1-4-3-4-|
|-0-----3---2-0-----2---2-|-0-----3---2-0-----2-1-2-|

pmh….. pmh….. pmh….. pmh…..

[(4)]


|-------------4-----------|
|-2---4---3-----3---2---1-|
|-2---2-5-1-4-----2---3---|
|-0-----3---2-------------|

pmh…..

Repeat B1 + B2

C Play 2 Times


|-------------------------|-------------------------|
|-2-----------2-----------|-2-----------2-----------|
|-2--/7---7---2--/7---6---|-2--/5---4---2--/4---3---|
|-0-----7---6-0-----6---5-|-0-----6---5-0-----5---4-|

pml….. pm…… pm…… pm……

Repeat C x 2 with the following harmony

C’ Play 2 Times


|--------------------------|-------------------------|
|-2--/9----8---2--/8---7---|-2--/7---6---2--/6---5---|
|-2-----10---9-2-----9---6-|-2-----6---5-2-----5---4-|
|-0------------0-----------|-0-----------0-----------|

Fill (Guitars)


|-------------|-----------------|-------------5-4---|
|-2-----------|-----------------|-------------5-4---|
|-2-----------|-----------------|-------------3-2---|
|-0-----------|-----------------|-------------------|

| (Bass) (1 – 3) (4) |


|-------------|-----------------|-------------------|
|-------------|-----------------|-------------------|
|-------------|-2---------------|-2-----------3-2---|
|-0-----------|-----3-2-5-2-3-2-|---3-2-5-2-3-------|

[(1] [-] [4)] [(5)]


|-----------------|-----------------|
|-4---------------|-4-------------5-|
|-2---4-4-7-7-5-5-|-2---4-4-7-7-5-3-|
|-----2-2-5-5-3-3-|-----2-2-5-5-3---|

pmh……… pmh…….

E (1 & 3) (2) (4)


|-----------------|-----------------|-----------------|
|-4---------------|-3---------------|-4-------------5-|
|-2---4-4-7-7-5-5-|-1---------------|-2---4-4-7-7-5-3-|
|-----2-2-5-5-3-3-|-----222-555-333-|-----2-2-5-5-3---|

pmh……… pm………. pmh…….

F (1, 2 & 3) (4)


|-----------------|-----------------|
|-4---------------|-4-------------5-|
|-2---------------|-2-------------3-|
|-----222-555-333-|-----222-555-3---|

pm………. pm……..

G (1 & 2) (3) (4)


|-----------------|-----------------|-----------------|
|-4---------------|-3---------------|-4-------------5-|
|-2---4-4-7-7-5-5-|-1---4-4-7-7-5-5-|-2---4-4-7-7-5-3-|
|-----2-2-5-5-3-3-|-----2-2-5-5-3-3-|-----2-2-5-5-3---|

pmh……… pmh……… pmh…….

Pause

H1 (Fast !)


|-6---------------------------------------------------------------|
|-6---------------------------------------------------------------|
|-4---------------------------------------------------------------|
|---------4-4-4-4-3-3-3-3-4-4-4-4-6-6-6-6-4-4-4-4-3-3-3-3-4-4-4-4-|

pm………………………………………………


|-6-------------------------------------------------------7-------|
|-6-------------------------------------------------------7-------|
|-4-------------------------------------------------------5-------|
|---------4-4-4-4-3-3-3-3-4-4-4-4-6-6-6-6-4-4-4-4-3-3-3-3---------|

pm……………………………………….

Repeat H1


|-6---------------------------------------------------------------|
|-6-------------------------------------------------------3-------|
|-4-----------------------------------------------4---4---3-------|
|---------4-4-4-4-3-3-3-3-4-4-4-4-6-6-6-6-4-4-4-4-2---2---1-------|

pm………………………………..pmh…..

Repeat H1, H2, H1 & H3 with following guitar harmonies (‘):
H1′


|-6---------------------------------------------------------------|
|-6---------------------------------------------------------------|
|-4-------2-2-2-2-1-1-1-1-2-2-2-2-4-4-4-4-2-2-2-2-1-1-1-1-2-2-2-2-|
|-----------------------------------------------------------------|

pm………………………………………………

H2′


|-6-------------------------------------------------------7-------|
|-6-------------------------------------------------------7-------|
|-4-------2-2-2-2-1-1-1-1-2-2-2-2-4-4-4-4-2-2-2-2-1-1-1-1-5-------|
|-----------------------------------------------------------------|

pm……………………………………….

H3′


|-6---------------------------------------------------------------|
|-6-------------------------------------------------------3-------|
|-4-------2-2-2-2-1-1-1-1-2-2-2-2-4-4-4-4-2-2-2-2-4---4---3-------|
|-------------------------------------------------2---2---1-------|

pm………………………………..pmh…..

Repeat (B1 + B2) x 2


|-------------------------|
|-2-----------2-----------|
|-2--/7---7---2--/7---6---|
|-0-----7---6-0-----6---5-|

pml…… pm……

Repeat B1

B2′ (4)


|-------------4-----------|
|-2---4---3-----3---3-----|
|-2---2-5-1-4-----2---4---|
|-0-----3---2-----------3-|

pmh…..

I1 (Very Fast !)


|----------------------------------|----------------------------------|
|-4------------------4------4------|-3------------------3------3------|
|-2------------------2------2------|-1------------------1------1------|
|---1111111111111111---1111---1111-|---1111111111111111---1111---1111-|

pm…………… pm… pm… pm…………… pm… pm…

I2


|----------------------------------|----------------------------------|
|-6------------------6------6------|-5------------------5------5------|
|-4------------------4------4------|-3------------------3------3------|
|---0000000000000000---0000---0000-|---0000000000000000---0000---0000-|

pm…………… pm… pm… pm…………… pm… pm…

Repeat I1 (with guitar playing drilled notes, ie without chords)

I3


|----------------------------------|---------------------------------|
|-6------------------6------6------|-6-6-----7-7-6-6-6-5-----6-6-5-5-|
|-4------------------4------4------|-4-4-4-4-5-5-4-4-3-3-4-4-4-4-3-3-|
|---0000000000000000---0000---0000-|-----2-2-------------2-2---------|

pm…………… pm… pm…..pmh………………………..

Repeat H1, H2, H1 & H3
Fill 1 Guitar 1 (Left Channel)


|-------------------------------------------------5---4-----------|
|---------------------------------4---3---4---6---5---4---4---5---|
|---------------------------------4---3---4---6---3---2---4---5---|
|---------------------------------2---1---2---4-----------2---3---|

| pmh………………………..|
| Guitar 2 (Right Channel) |


|-------------------------------------------------5---4-----------|
|---------------------------------4---3---4---6---5---4---4---5---|
|-------4-------5-------5-4-----3-4---3---4---6---3---2---4---5---|
|-222-5---333-6---222-5-----2-2---2---1---2---4-----------2---3---|

pm…………………………pmh………………………..

J1 (Both Guitars)


|-----------------------------------------------------------------|
|-------------------------------------------------------7-------6-|
|-------4-------5-------4-------3-------7-------6-----7-------6---|
|-222-5---333-6---222-5---111-4---555-8---444-7---5-8-----4-7-----|

pm……………………………………………………..

J2


|------------------------------------------------------------------|
|------------------------------------------------------------------|
|-------4-------5-------5-4-----3-----------------22221111---------|
|-222-5---333-6---222-5-----2-2---1111000011113333--------22223333-|

pm………………………………………………………

Repeat J1

Fill 2


|-------------------|
|------9-10-----8-9-|
|-7-10------6-9-----|
|-------------------|

pm…. pm…

K1


|-----------------------------------------------------------------|
|-----------------------------------------------------------------|
|----------7---7--------7---6--------------5---4--------4---3-----|
|-00000000---7---6-0000---6---5-4-00000000---6---5-0000---5---4-3-|

pm……………………………………………………..

K2


|------------------------------------------------------------------|
|------------------------------------------------------------------|
|----------7---7--------7---6--------------5---4---3---4---5---4---|
|-00000000---7---6-0000---6---5-4-00000000---6---5---4---5---6---5-|

pm………………………………………………………
L1 (slow grind!)


|------------5-5-4-----------------------|
|-----------------------------------AH---|
|-5-5-5-6-4--3-3-2--5-5-5-6-4--5-2-------|
|-3-3-3-4-2---------3-3-3-4-2--3-0-------|

pmh…… pmh………….
L2


|------------5-5-4-----------------------|
|-----------------------------------AH---|
|-5-5-5-6-4--3-3-2--5-5-5-6-4--5-2-------|
|-3-3-3-4-2---------3-3-3-4-2--3-0-------|

pmh…… pmh………….

Repeat (L1 + L2)
L3


|------------5-5-4-------------------|
|------------------------------------|
|-5-5-5-6-4--3-3-2--5-5-5-6-4--5-4-2-|
|-3-3-3-4-2---------3-3-3-4-2--3-2-0-|

pm……. pm……………

M1 (solos start)
(1,2,3,5,6,7) (4)


|--------------------------|--------------4---------------|
|---------4------------3---|----------4-----3---2---1-----|
|---------2-5----------1-4-|----------2-5-----2---3---2---|
|-0000000---3-00000000---2-|-00000000---3---------------3-|

pm………………………………..

Fill 3 Guitar 1 (Left Channel)


|---------------4---------------7----------------|
|-----------4-----3---2---1--------6---5---4-----|
|-----------2-3-----2---3---2--------5---4---5---|
|-000000000---1---------------3----------------6-|

| Guitar 2 (Right Channel) |


|-end of solo---7---------------10---------------|
|-----------------6---5---4--------9---8---7-----|
|-------------------5---4---5--------8---7---6---|
|-----------------------------6----------------8-|

C” Guitar 1 (Left Channel)


|-------------------------|-------------------------|
|-2--/6---5---2--/5---4---|-2--/4---3---2--/3---2---|
|-2-----7---6-2-----6---3-|-2-----3---2-2-----2---1-|
|-0-----------0-----------|-0-----------0-----------|

| Guitar 2 (Right Channel) |


|-------------------------|-------------------------|
|-2-----------2-----------|-2-----------2-----------|
|-2--/7---7---2--/7---6---|-2--/5---4---2--/4---3---|
|-0-----7---6-0-----6---5-|-0-----6---5-0-----5---4-|

Guitar 1 (Left Channel)


|---------------------------|-------------------------|
|-2-------------2-----------|-2-----------2-----------|
|-2---/7----7---2--/7---6---|-2--/5---4---2--/4---3---|
|-0------7----6-0-----6---5-|-0-----6---5-0-----5---4-|

| Guitar 2 (Right Channel) |


|---------------------------|-------------------------|
|-----/9----8---2--/8---7---|-2--/7---6---2--/6---5---|
|-/7-----10---9-2-----9---6-|-2-----6---5-2-----5---4-|
|---------------0-----------|-0-----------0-----------|

Repeat B1 + B2, B1

Fill 4 Guitar 1 (Left Channel)


|------------4-----------7-------------|
|-2--4---3-----3---3--------6---6------|
|-2--2-5-1-4-----2---4--------5---7----|
|-0----3---2-----------3-------------6-|

| Guitar 2 (Right Channel) |


|------------7-----------10------------|
|-2--4---3-----6---6--------9---9------|
|-2--2-5-1-4-----5---7--------8---10---|
|-0----3---2-----------6-------------9-|

Repeat K1
K3


|------------------------------------------------------------------|
|----------------------------------------------------------5-5-4---|
|----------7---6--------6---5--------------5---4---2-2-4-4-3-3-2-5-|
|-00000000---7---7-0000---7---6-5-00000000---6---5-0-0-2-2-------3-|

pm……………………………………………………..

Repeat K1

Outro pause pause


|-----------------------------------|---|---------|---|-----------|
|-----------------------------------|---|---------|---|-----------|
|----------7---6----------6---5-----|---|-5---4---|---|-4---3---2-|
|-00000000---7---7-000000---7---6-5-|---|---6---5-|---|---5---4-0-|

pm…………………………………………………….

The End.


 

If you want to master Suffocation Torn Into Enthrallment guitar chords, The 5 chords we’ll look at are the C major, A major, G major, E major, and D major.
The reason we use all major chords is that the minor versions of any of these chords just require tiny adjustments.
Every of those minor chords is fully based on its major counterpart

The more you proceeding, the simple guitar will feel to play Torn Into Enthrallment. Guitar is hard to study in the beginning, but gets easier the more time you stick with it.

Leave a Comment