Art School Girl by Stone Temple Pilots Guitar Chords

If you are looking for Art School Girl guitar chords, you have come to the right site.
You can play Art School Girl by Stone Temple Pilots using guitar or guitar.
This song by Stone Temple Pilots can also be played by that instruments.
=

Art School Girl guitar chords has swing and included in Tiny Music… Songs From the Vatican Gift Shop (1996) album.
You can also find alternative musical style, along with jazz guitar chords, country music guitar chords, pop guitar chords, world music guitar chords, and rock guitar chords here.

Art School Girl by Stone Temple Pilots Guitar Chords


Date: Thu, 04 Jul 1996 19:29:08 +0000
From: Josh & Crystal

Art School Girlfriend


------

GUITAR


------

intro/verse:


e||------------------------||
b||-11-119-9--9-9-9-9-9---||
g||-11-119-9--9-9-9-9-9--o||
d||-11-119-9--9-9-9-9-9--o||
a||-9---97-7--6-6-6/7-7---||
e||-9---97-7--6-6-6/7-7---||

chorus:

e||-2-|—|

b||-2-|-2-|

g||-1-|-2-|

d||-3-|-2-|

a||-3-|-0-|

e||-2-|-0-|

[—-]
BASS

[—-]

intro/verse:


g||-----------------------------||

Art School Girlfriend by the Stone Temple Pilots
from Tiny Music Songs From The Vatican Gift Shop
Transcribed by jonathan lozoya


Here's the main riff:

Throw in some palm mutes
listen with the cd to help you out



E ---------------------------------------------------
B ---------------------------------------------------
G ---------------------------------------------------
D -/11-----11------9--9----8-8-8---9--9--------------
A -/9------9-------7--7----6-6-6---7--7--------------
E ---------------------------------------------------

If you post this elsewhere, please give me credit. THANKS
Enjoy!

[-----]
From: Kevin Gardner
Date: Tue, 2 Jul 1996 14:28:05 -0400 (EDT)

Art School Girl

by Stone Temple Pilots
transcribed by Kevin Gardner code@wam.umd.edu

Intro


-----------------------
----------------------- |
-11--9-9-9--9-9--9-9-9- |
-11--9-9-9--9-9--9-9-9- 4X
-9---7-7-7--6-6--7-7-7- |
----------------------- /

Verse 1


-----------------------
----------------------- |
-11--9-9-9--9-9--9-9-9- |
-11--9-9-9--9-9--9-9-9- 8X
-9---7-7-7--6-6--7-7-7- |
----------------------- /

Chorus 1


--------------- -------
--------------- | ------
--------------- | ------
--------------- 8X ------
---4---4-4-4-7- | ---4---
-0-2-0-2-2-2-5- / -0-2-0-

Verse 2 same as verse 1
Chorus 2 same as chorus 1

Break


-5--2--------------------------------
-5--2--------------------------------
-7--4--------------------------------
-7--4--------------------------------
-5--2--4-4-4-7----4---4-4-4-7----4---
-------2-2-2-5--0-2-0-2-2-2-5--0-2-0-
-5--2--------------------------------
-5--2-------------------------------- |
-7--4-------------------------------- 3X
-7--4-------------------------------- |
-5--2--4-4-4-7----4---4-4-4-7----4--- |
-------2-2-2-5--0-2-0-2-2-2-5--0-2-0- /

on the thrid time payending eight times
Verse 3 same as verse 1
Chorus 3 same as chorus 1 end on Dsus2


 

If you want to study Stone Temple Pilots Art School Girl guitar chords, The 5 chords we’ll look at are the C major, A major, G major, E major, and D major.
The reason we use all major chords is that the minor versions of any of these chords just require tiny adjustments.
Every of those minor chords is completely based on its major counterpart

The more you practice, the easier guitar will feel to play Art School Girl. Guitar is hard to master in the beginning, but gets easier the more time you stick with it.

Leave a Comment