Razorlives by Soilwork Guitar Chords

When you looking for Razorlives guitar chords, you’ve visit to the perfect place.
You can play Razorlives by Soilwork using guitar or guitar.
This song by Soilwork can also be played by that device.
=

Razorlives guitar chords has pattern and included in Steelbath Suicide (1998) album.
You can also find alternative musical genres, along with jazz guitar chords, country music guitar chords, pop guitar chords, world music guitar chords, and rock guitar chords here.

Razorlives by Soilwork Guitar Chords


SOILWORK – RAZORLIVES
From “Steel Bath Suicide”

Transcribed by: Justin Simms

For Questions, Comments, Corrections, Requests
please contact at reaper@slayerized.com

Check out The Reaper’s Metal Tablature Archive at
http://internettrash.com/users/thereaper/

. – palm mute / – slide up to
– slide down to ~ – vibrato
” – tremelo picking () – ghost note
p – pull off h – hammer-on
tr – trill notes fb – full bend (1step)
– harmonic

Soilwork – Razorlives

Tune 2.5 steps down

Riff A


|------------------------------------------------------------------|
|------------------------------------------------------------------|
|------------------------------------------------------------------|
|------149-9------10-9----------149-9---------4------------------|
|-2-----------7----------10--2-----------7--2-2-2-5-4--------------|
|-0-0-----------00-----------0-0------------0-0---3-2--------------|

. . . . . .


|------------------------------------------------------------------|
|------------------------------------------------------------------|
|------------------------------------------------------------------|
|------149-9-----10-9----------149-9---------9-------------------|
|-2-----------7--------10--2-----------7-2-2---7-------------------|
|-0-0----------------------0-0-----------0-0-----------------------|

. . . .

Riff A 2x alone, 2x with 2nd guitar

When it comes in, 2nd guitar plays this


|------------------------------------------------------------------|
|------------------------------------------------------------------|
|------127-7-10--12-11---------127-7-12--------------------------|
|-----------------------12-------------------4---------------------|
|-2------------------------2-------------2-2-2-5-4-----------------|
|-0-0----------------------0-0-----------0-0---3-2-----------------|

. . . . . .

Riff B


|---------------------------|
|---------------------------|
|---------------------------|
|---------------------------|
|-0h7-0-7-0-7----5---5-5----|
|--------------3---3--------|

. . . .

Fill 1


|---------------------|
|---------------------|
|---------------------|Gtr I
|---------------5-4-7-|
|-0-7-0-7-0-7-3-------|
|---------------------|

. . .

Riff B – 4x

During the first 4 times when only one guitar is playing Riff B, the 2nd
guitar plays:

Riff C


|------------------------------------------------------------------|
|------------------------------------------------------------------|
|------------------------------------------------------------------|Gtr I
|-----9-7-----------9-7-------------------9-7-------222-5-222-7----|
|-222-----10-9~-222-----10-9~--555-7~-222-----10-9~-000-3-000-5----|
|-000-----------000-------------------000--------------------------|

… … …

2nd guitar is playing this when it comes in:


|------------------------------------------------------------------|
|------7-5-----------7-5------------------7-5----------------------|
|----------8-7~----------8-7~------------------8-7~----------------|Gtr II
|---------------------------------------------------222-5-222-7----|
|-222----------222-------------555-7~-222-----------000-3-000-5----|
|-000----------000--------------------000--------------------------|

… … …

Riff C – 2x guitar I only
Riff C – 2x both guitars
Riff B – – 4x
Riff C – 2x guitar I, 2x both guitars
Riff B – 3x plus fill

Riff D


|----------|
|----------|
|----------|
|----------|
|-3-5-3-5--|
|-1-3-1-3--|

Riff D – 1x

Riff E


|------------------------------------------------------------------|
|------------------------------------------------------------------|
|------------------------------------------------------------------|Gtrs I
|-7-7--7--7--7-7-9-9--9--9--9-9-10-10--10--10--10-10-12-12----12---| & II
|------------------------------------------------------------------|
|-5--55-55-55-5--7--77-77-77-7--8----88--88--88--8---10---1010-----|
|-----------|
|-----------|
|-----------|
|-----12----|
|-----------|
|-1010------|

Riff E – 1x

Riff F (Melody)


|--------------------------------------------|
|--------------------------------------------|
|--------------------------------------------|Gtr I
|----------------------9-----7-----9--11-12--|
|------2---2--2--------7-----5-----7--9--10--|
|------0-1-0--0------------------------------|

| . |


|----15-14h15~---14h15-17fbr-16fbr-15-14-15--|
|-11-----------------------------------------|
|--------------------------------------------|Gtr II
|--------------------------------------------|
|--------------------------------------------|
|--------------------------------------------|
|--------------------------------------------|
|--------------------------------------------|
|--------------------------------------------|Gtr I
|-11-----------------------------------------|
|-9-----10------7--5--4--2-----2----2--------|
|----8~----8-7~-5--3--2--0--1--0----0--------|

| . |


|-14-16fbr~----------------------------------|
|---------------16-14------------------------|
|---------------------12-14br--12br----------|Gtr II
|--------------------------------------------|
|--------------------------------------------|
|--------------------------------------------|
|--------------------------------------------|
|--------------------------------------------|
|--------------------------------------------|Gtr I
|-9--7--9--11-12-11-------------8~---7--5--4-|
|-7--5--7--9--10-9--------10-----------------|
|-------------------8~-------8---------------|

| |


|----------14-15-14-------15----17fb-17-15-14|
|-16-14-16----------12br~----12--------------|
|--------------------------------------------|Gtr II
|--------------------------------------------|
|--------------------------------------------|
|--------------------------------------------|
|--------------------------------------------|
|--------------------------------------------|
|--------------------------------------------|Gtr I
|----------------9----------------9----------|
|-2------2-------7-------------5--7---3----5-|
|-0-1----0-------------------0-3----0-1-00-3-|

| . . .. |


|---14h15p14-12~----17----17-19fb~-----------|
|----------------16----16--------------------|
|--------------------------------------------|Gtr II
|--------------------------------------------|
|--------------------------------------------|
|--------------------------------------------|
|--------------------------------------------|
|--------------------------------------------|
|--------------------------------------------|Gtr I
|-9----------------9-------------------------|
|-7-------------5--7---3----5---5------------|
|-------------0-3----0-1-00-3-0-3------------|

| . . .. . |


|--------------------------------------------|
|----16----16-18fb~--------------------------|
|-15----15-----------------------------------|Gtr II
|--------------------------------------------|
|--------------------------------------------|
|--------------------------------------------|

Riff F – 1x

Riff G


|--------------------------------------------|
|--------------------------------------------|
|--------------------------------------------|Gtrs I
|--------------------------------------------| & II
|-----8---7-8---5---3---3-5-5----------------|
|-000---0-----0-3-0-1-0-1-3-3----------------|

… . . . .

Riff G – 4x

Riff H (played under solo 4x)


|--------------------------------------------|
|--------------------------------------------|
|--------------------------------------------|Gtr I
|---1211-129-1211-129---1211-129-555-7-|
|-2-109--107-109--107-2-109--107-333-5-|
|-0-----------------------0------------------|

Solo


|-12tr15----------------------------15fb~-12p10-12fb-------|
|--------11tr14-11h13h14p13p11-----------------------9ah~--|
|------------------------------12~-------------------------|Gtr II
|----------------------------------------------------------|
|----------------------------------------------------------|
|----------------------------------------------------------|
|----------------------------------------------------------|
|----------------------------------------------------------|
|-11~-11p97ahfb~-16p17fbr~-17fbr~-14br~---11fbr~-7fbr~----|Gtr II
|----------------------------------------------------------|
|----------------------------------------------------------|
|----------------------------------------------------------|
|----------------------------------------------7h9h10/12---|
|------------------------------------------7-9-------------|
|-14br~---11fbr~-7fbr~-----------------7-9-----------------|Gtr II
|----------------------9fbr~-9b~-7fbr~---------------------|
|----------------------------------------------------------|
|----------------------------------------------------------|
|-12h14h15p14p12-10~-7~-5~---------------------------------|
|--------------------------6~----4h5~----------------------|
|----------------------------------------------------------|Gtr II
|----------------------------------------------------------|
|----------------------------------------------------------|
|----------------------------------------------------------|

Riff C – 1x guitar I with guitar II holding the last note from teh solo,
1x both guitars

Riff I


|-------------------------------------------------|
|-------------------------------------------------|
|-----9---7----------------9---7------------------|Gtr I
|-------------10---9~--------------10---9~-555-7~-|
|-000---0---0----0-----000---0---0----0-----------|
|-------------------------------------------------|

… . . . … . . .


|-------------------------------------------------|
|-------------------------------------------------|
|-----9---7---------------9---7--------------5---7|Gtr I
|-------------10---9~-------------10---9~-33335555|
|-000---0---0----0----000---0---0----0------------|
|-------------------------------------------------|

… . . . … . . . … …

Guitar II comes in playing


|--------------------------------------------|
|-----13-12-----------13-12------------------|
|-----------14-12-----------14-13------------|Gtr II
|---------------------------------222-5~-----|
|-000-------------000------------------------|
|--------------------------------------------|

… …


|--------------------------------------------|
|-----13-12-----------13-12------------------|
|-----------14-12-----------14-13-----5-----7|Gtr II
|---------------------------------333-3-555-5|
|-000-------------000------------------------|
|--------------------------------------------|

… … … …

Riff I – 1x guitar I, 1x both guitars
Riff C – 3x plus fill

Visit MetalTabs.com for more metal tablatur


 

If you want to master Soilwork Razorlives guitar chords, The 5 chords we’ll look at are the C major, A major, G major, E major, and D major.
The reason we use all major chords is that the minor versions of any of these chords just lack tiny adjustments.
Every of those minor chords is perfectly based on its major counterpart

The more you practice, the simple guitar will feel to play Razorlives. Guitar is not easy to master in the beginning, but gets easier the longer you stick with it.

Leave a Comment