The Weary Kind by Ryan Bingham Guitar Chords

If you are looking for The Weary Kind guitar chords, you already come to the right site.
You can play The Weary Kind by Ryan Bingham using guitar or guitar.
This song by Ryan Bingham can also be played by that device.
=

The Weary Kind guitar chords has swing and included in Live 08-06-16 (2016) album.
You can also find other musical genres, including jazz guitar chords, country music guitar chords, pop guitar chords, world music guitar chords, and rock guitar chords here.

The Weary Kind by Ryan Bingham Guitar Chords




e|--------2---------------2-------|
B|--3-------3------3--------3-----|
G|---------------2----------------|
D|----0--------0-------0-------0--|
A|--------------------------------|
E|--------------------------------|


e|--------0---------------0-------|
B|--2-------2------2--------2-----|
G|---------------0----------------|
D|----2--------2-------2-------2--|
A|--------------------------------|
E|--------------------------------|


e|--------2---------------2-------|
B|--3-------3------3--------3-----|
G|---------------2----------------|
D|----4--------4-------4-------4--|
A|--------------------------------|
E|--------------------------------|


e|--------3---------------3-------|
B|--0-------0------0--------0-----|
G|---------------0----------------|
D|-------------0-------0-------0--|
A|--------------------------------|
E|-----3--------------------------|



e|--------2---------------3-------|
B|--3-------3------0--------0-----|
G|--------------------------------|
D|----0--------0--------------0---|
A|--------------------------------|
E|--------------------3-----------|


[Chorus Bits]
A7 A13sus4 A7omit3 A13sus4


e|--------0--------------0-------------------0-----------------0---------|
B|--2-------2------3--------3---------5---------5-------3--------3-------|
G|-----------------------------------------------------------------------|
D|-----2-------0------4---------4--------5---------5--------4-------4----|
A|-----------------------------------------------------------------------|
E|-----------------------------------------------------------------------|

4/4 Time
100BPM



[Verse 1]
Your heart’s on the loose
You rolled them seven’s with nothin lose
And this ain’t no place for the weary kind
You called all your shots
Shooting 8 ball at the corner truck stop
Somehow this don’t feel like home anymore

[Chorus 1]
And this ain’t no place for the weary kind
G Bm A7 A13sus4 A7omit3 A13sus4
And this ain’t no place to lose your mind
G Bm A7 A13sus4 A7omit3 A13sus4
And this ain’t no place to fall behind
G Bm A7 A13sus4 A7omit3 A13sus4
Pick up your crazy heart and give it one more try

[Instrumental]

[Verse 2]
Your body aches
Playing your guitar and sweating out the hate
The days and the nights all feel the same
Whiskey has been
A thorn in your side and it doesn’t forget
The highway that calls for your heart inside

[Chorus 2]
And this ain’t no place for the weary kind
G Bm A7 A13sus4 A7omit3 A13sus4
And this ain’t no place to lose your mind
G Bm A7 A13sus4 A7omit3 A13sus4
And this ain’t no place to fall behind
G Bm A7 A13sus4 A7omit3 A13sus4
Pick up your crazy heart and give it one more try

[Instrumental]
D G Bm A7 A7 G Bm A7 A13sus4 A7omit3 A13sus4

[Verse 3]
Your lovers warm kiss
It’s too damn far from your fingertips
You are the man that ruined her world
Your heart’s on the loose
You rolled them seven’s with nothing lose
This ain’t no place for the weary kind


 

If you want to study Ryan Bingham The Weary Kind guitar chords, The 5 chords we’ll look at are the C major, A major, G major, E major, and D major.
The reason we use all major chords is that the minor versions of any of these chords just require tiny adjustments.
Every of those minor chords is entirely based on its major counterpart

The more you proceeding, the easier guitar will feel to play The Weary Kind. Guitar is hard to master in the beginning, but gets easier the more time you stick with it.

Leave a Comment