Take a Drink by Quietdrive Guitar Chords

If you are looking for Take a Drink guitar chords, you’ve visit to the perfect site.
You can play Take a Drink by Quietdrive using guitar or guitar.
This song by Quietdrive can also be played by that instruments.
=

Take a Drink guitar chords has tempo and included in When All That’s Left Is You (2006) album.
You can also find alternative musical style, including jazz guitar chords, country music guitar chords, pop guitar chords, world music guitar chords, and rock guitar chords here.

Take a Drink by Quietdrive Guitar Chords


(You have to play two different F’s in this song, so I labeled them High F and Low
. Also, you can play two different C’s. Play whatever feels easier.)
Here are the chords that you’ll use:

Fh | C/E | C | D | A#| A | G | Fl|


|----|-----|----------|---|---|---|---|---|
|----|-----|----------|---|---|---|---|---|
|-10-|--9--|-------5--|-7-|---|---|---|---|
|-10-|--10-|-10----5--|-7-|-8-|-7-|-5-|-3-|
|-8--|--7--|-10 or 3--|-5-|-8-|-7-|-5-|-3-|
|----|-----|-8--------|---|-6-|-5-|-3-|-1-|

Verse: (palm muted)

Fh C/E D
I never wanna be part of the herd
I guess I was in case you haven’t heard
Maybe you can tell that I can’t stand
C Fh
The way I want to be the included

then in the background comes the second guitar:
Fh C/E D C A# A C


|----------------------------------------------------------------|
|----------------------------------------------------------------|
|-----5-------5-------5-------5-------5-------5-------5-------5--|
|-3-3---3-2-3---3-0-3---3---3---3---3---3---3---3---3---3---3---3|
|-------------------------3-------1---------------3-------3------|
|-----------------------------------------3----------------------|

Fh C/E D
I always wanna be a mystery
I always knew that two and two made three
I wish away the time I’m living in
I never wanna see a smile again

Pre-chorus: (Play each chord once with a NASTAY Wah pedal)
But its not for sure, and I’m feeling
D A# C Fl
like its not for sure, come on and take a drink with me

Chorus:
Fl C G A A#
Woah! Woah! I don’t think you can cope with it
C Fl
I don’t think you can handle it
Woah! Woah!
A A# C Fh
forgive my un-forgetfulness–and take a drink with me…

Verse 2: (palm muted)
The chords are played over


|-------------| |----------------------|
|-----6----6--| |----------------------|
|--5~---5~----| x4 then |-5~-3--5~-2-5~-2-5~-3-|
|-------------| |----------------------|
|-------------| |----------------------|
|-------------| |----------------------|

I wanted to be two but more than one
I only thought that I could be so dumb
Crush my heart with your new heels
I’d beg for you but I don’t kneel
I understand that you were living there
It never bothered me that I don’t care
I wonder if I’ll act on my impulse
I wonder if I’ll leave if you say no

Pre-Chorus: (same rule as before)

But its not for sure, and I’m feeling
D A# C Fl
like its not for sure, come on and take a drink with me

Chorus:

Fl C G A A#
Woah! Woah! I don’t think you can cope with it
C Fl
I don’t think you can handle it
Fl C G A A# C
Woah! Woah! Forgive my un-forgetfulness–and take a drink with me.

Third verse:
(Lead guitar)Fl A A# A


|---------------------------|
(second |---------------------------|
guitar) |-5------------5----------5-|
|--3-3-3-3-2-3---3~-3-2-3--3|
|---------------------------|
|---------------------------|

Then lead guitar plays the Fl, A, A#, Fl chords palm muted while second guitar plays:


|--------|
|--------|
|-5----5-|

|–3323-3|


|--------|
|--------|

(Pre-chorus)

(Chorus)


 

If you want to learn Quietdrive Take a Drink guitar chords, The 5 chords we’ll look at are the C major, A major, G major, E major, and D major.
The reason we use all major chords is that the minor versions of any of these chords just lack tiny adjustments.
Every of those minor chords is quite based on its major counterpart

The more you proceeding, the easier guitar will feel to play Take a Drink. Guitar is not easy to learn in the beginning, but gets easier the more time you stick with it.

Leave a Comment