Feed the Machine by Nickelback Guitar Chords

If you are looking for Feed the Machine guitar chords, you have visit to the perfect place.
You can play Feed the Machine by Nickelback using guitar or guitar.
This song by Nickelback can also be played by that equipment.
=

Feed the Machine guitar chords has rhythm and included in Feed the Machine (2017) album.
You can also find alternative musical category, along with jazz guitar chords, country music guitar chords, pop guitar chords, world music guitar chords, and rock guitar chords here.

Feed the Machine by Nickelback Guitar Chords



D|--------------------------------------------------|Only play this once (1x)
A|--------------------------------------------------|
F|--------------------------------------------------|
A|--------------------------------------------------|
G|--0--------------8p5-----3h5----------------------|
C|--0--0-0-5p3-0-0-----0-0--------------------------|

PM

[Full Intro – Both guitars]


D|--------------------------------------------------|----------------------------------------------------|
A|--------------------------------------------------|----------------------------------------------------|
F|--------------------------------------------------|----------------------------------------------------|
C|--0-----------------------------------------------|--0-------------------------------------------------|
G|--0--------------5--x-x--------------8p5-----3h5--|--0--------------5----x-x--------------8p5-----3h5--|
C|--0--0-0-5p3-0-0----x-x--0-0-5p3-0-0-----0-0------|--0--0-0-5p3-0-0----0-x-x--0-0-5p3-0-0-----0-0------|

PM


D|--------------------------------------------------|----------------------------------------------------|
A|--------------------------------------------------|----------------------------------------------------|
F|--------------------------------------------------|----------------------------------------------------|
C|--0-----------------------------------------------|--0-------------------------------------------------|
G|--0--------------5--x-x--------------8p5-----3h5--|--0--------------5----x-x--------------8p5-----3h5--|
C|--0--0-0-5p3-0-0----x-x--0-0-5p3-0-0-----0-0------|--0--0-0-5p3-0-0----0-x-x--0-0-5p3-0-0-----0-0------|

PM

[Pre verse – rhythm]


D|--------------------------|Let the chord ring out throughout the first 4 beats of the verse
A|--------------------------|
F|--------------------------|
C|--------------------------|
G|-0~-----------------------|
C|-0~-----------------------|

[Verse – lead clean/delay)


D|--------------------------|-----------------------------|
A|--------------------------|-----------------------------|
F|---------------------14---|--------------9----------10--|
C|--12--12-12--12-12-12-----|--10-10--10-10---10-10-10----|
G|--------------------------|-----------------------------|
C|--------------------------|-----------------------------|

PM


D|--------------------------|-----------------------------|
A|--------------------------|-----------------------------|
F|---------------------14---|--------------9-------10-----|
C|--12--12-12--12-12-12-----|--10-10--10-10---10-10---12--|
G|--------------------------|-----------------------------|
C|--------------------------|-----------------------------|

PM


D|--------------------------|-----------------------------|
A|--------------------------|-----------------------------|
F|---------------------14---|--------------9----------10--|
C|--12--12-12--12-12-12-----|--10-10--10-10---10-10-10----|
G|--------------------------|-----------------------------|
C|--------------------------|-----------------------------|

PM

Rhythm guitar kicks in


D|--------------------------|-----------------------------|
A|--------------------------|-----------------------------|
F|---------------------14---|--------------9-------10-----|
C|--12--12-12--12-12-12-----|--10-10--10-10---10-10---12--|
G|--------------------------|-----------------------------|
C|--------------------------|-----------------------------|

PM

[Verse – Rythm]


D|--------------------------------|--------------------------------|
A|--------------------------------|--------------------------------|
F|--------------------------------|--------------------------------|
C|--0--0----0--0----0--0----0--0--|--0--0----0--0----0--0----0--0--|
G|--0--0----0--0----0--0----0--0--|--0--0----0--0----0--0----0--0--|
C|--0--0----0--0----0--0----0--0--|--0--0----0--0----0--0----0--0--|

[Pre chorus – both guitars]


D|-------------------------|-------------------------|-------------------------|-------------------------|
A|-------------------------|-------------------------|-------------------------|-------------------------|
F|--14--14-14---14--14-14--|--14--14-14---14--14-14--|--14--14-14---14--14-14--|--14--14-14---14--14-14--|
C|--x---x--x----x---x--x---|--12--12-12---12--12-12--|--x---x--x----x---x--x---|--12--12-12---12--12-12--|
G|--x---x--x----x---x--x---|--10--10-10---10--10-10--|--x---x--x----x---x--x---|--10--10-10---10--10-10--|
C|--12--12-12---12--12-12--|--10--10-10---10--10-10--|--12--12-12---12--12-12--|--10--10-10---10--10-10--|
D|-------------------| Small lick before the chorus
A|-------------------|
F|-------------------|
C|-------------------|
G|------8p5-----3h5--|
C|--0-0-----0-0------|

PM

[Chorus – both guitars] Listen to the song for the excact rhyhtm timing


D|-------------------------------------------------------------------------------|
A|-------------------------------------------------------------------------------|
F|-------------------------------------------------------------------------------|
C|-------------------------------------------------------------------------------|
G|--0--0-0-0-3/108--8-8-8-8--8-8-8-8--10--5--5-5-5-5-5--3--5--5-5-5-5-5-5--3-5--|
C|--0--0-0-0-3/108--8-8-8-8--8-8-8-8--10--5--5-5-5-5-5--3--5--5-5-5-5-5-5--3-5--|
D|-------------------------------------------------------------------------------|
A|-------------------------------------------------------------------------------|
F|-------------------------------------------------------------------------------|
C|-------------------------------------------------------------------------------|
G|--0--0-0-0-3/108--8-8-8-8--8-8-8-8--10--5--5-5-5-5-5--3--5--5-5-5-5-5-5--3-5--|
C|--0--0-0-0-3/108--8-8-8-8--8-8-8-8--10--5--5-5-5-5-5--3--5--5-5-5-5-5-5--3-5--|
D|-------------------------------------------------------------------------------|
A|-------------------------------------------------------------------------------|
F|-------------------------------------------------------------------------------|
C|-------------------------------------------------------------------------------|
G|--0--0-0-0-3/108--8-8-8-8--8-8-8-8--10--5--5-5-5-5-5--3--5--5-5-5-5-5-5--3-5--|
C|--0--0-0-0-3/108--8-8-8-8--8-8-8-8--10--5--5-5-5-5-5--3--5--5-5-5-5-5-5--3-5--|
D|-------------------------------------------------------------|
A|-------------------------------------------------------------|
F|-------------------------------------------------------------|
C|-------------------------------------------------------------|
G|--0--0-0-0-3/108--8-8-8-8--8-8-8-8--10--5--5-5-5-5-5--3--5--|
C|--0--0-0-0-3/108--8-8-8-8--8-8-8-8--10--5--5-5-5-5-5--3--5--|

[Main Riff – Both guitars] (equal to the intro parts)


D|---------------------------|
A|---------------------------|
F|---------------------------|
C|---------------------------|
G|--------------8p5-----3h5--|
C|--0-0-5p3-0-0-----0-0------|

PM


D|--------------------------------------------------|----------------------------------------------------|
A|--------------------------------------------------|----------------------------------------------------|
F|--------------------------------------------------|----------------------------------------------------|
C|--0-----------------------------------------------|--0-------------------------------------------------|
G|--0--------------5--x-x--------------8p5-----3h5--|--0--------------5----x-x--------------8p5-----3h5--|
C|--0--0-0-5p3-0-0----x-x--0-0-5p3-0-0-----0-0------|--0--0-0-5p3-0-0----0-x-x--0-0-5p3-0-0-----0-0------|

PM


D|--------------------------------------------------|----------------------------------------------------|
A|--------------------------------------------------|----------------------------------------------------|
F|--------------------------------------------------|----------------------------------------------------|
C|--0-----------------------------------------------|--0-------------------------------------------------|
G|--0--------------5--x-x--------------8p5-----3h5--|--0--------------5----x-x--------------8p5-----3h5--|
C|--0--0-0-5p3-0-0----x-x--0-0-5p3-0-0-----0-0------|--0--0-0-5p3-0-0----0-x-x--0-0-5p3-0-0-----0-0------|

PM

[Verse 2 – lead clean/delay) equal to first verse and pre chorus


D|--------------------------|-----------------------------|
A|--------------------------|-----------------------------|
F|---------------------14---|--------------9----------10--|
C|--12--12-12--12-12-12-----|--10-10--10-10---10-10-10----|
G|--------------------------|-----------------------------|
C|--------------------------|-----------------------------|

PM


D|--------------------------|-----------------------------|
A|--------------------------|-----------------------------|
F|---------------------14---|--------------9-------10-----|
C|--12--12-12--12-12-12-----|--10-10--10-10---10-10---12--|
G|--------------------------|-----------------------------|
C|--------------------------|-----------------------------|

PM


D|--------------------------|-----------------------------|
A|--------------------------|-----------------------------|
F|---------------------14---|--------------9----------10--|
C|--12--12-12--12-12-12-----|--10-10--10-10---10-10-10----|
G|--------------------------|-----------------------------|
C|--------------------------|-----------------------------|

PM

Rhythm guitar kicks in


D|--------------------------|-----------------------------|
A|--------------------------|-----------------------------|
F|---------------------14---|--------------9-------10-----|
C|--12--12-12--12-12-12-----|--10-10--10-10---10-10---12--|
G|--------------------------|-----------------------------|
C|--------------------------|-----------------------------|

PM

[Verse – Rythm]


D|--------------------------------|--------------------------------|
A|--------------------------------|--------------------------------|
F|--------------------------------|--------------------------------|
C|--0--0----0--0----0--0----0--0--|--0--0----0--0----0--0----0--0--|
G|--0--0----0--0----0--0----0--0--|--0--0----0--0----0--0----0--0--|
C|--0--0----0--0----0--0----0--0--|--0--0----0--0----0--0----0--0--|

[Pre chorus – both guitars]


D|-------------------------|-------------------------|-------------------------|-------------------------|
A|-------------------------|-------------------------|-------------------------|-------------------------|
F|--14--14-14---14--14-14--|--14--14-14---14--14-14--|--14--14-14---14--14-14--|--14--14-14---14--14-14--|
C|--x---x--x----x---x--x---|--12--12-12---12--12-12--|--x---x--x----x---x--x---|--12--12-12---12--12-12--|
G|--x---x--x----x---x--x---|--10--10-10---10--10-10--|--x---x--x----x---x--x---|--10--10-10---10--10-10--|
C|--12--12-12---12--12-12--|--10--10-10---10--10-10--|--12--12-12---12--12-12--|--10--10-10---10--10-10--|
D|-------------------| Small lick before the chorus
A|-------------------|
F|-------------------|
C|-------------------|
G|------8p5-----3h5--|
C|--0-0-----0-0------|

PM

[Chorus 2 – both guitars] Listen to the song for the excact rhyhtm timing


D|-------------------------------------------------------------------------------|
A|-------------------------------------------------------------------------------|
F|-------------------------------------------------------------------------------|
C|-------------------------------------------------------------------------------|
G|--0--0-0-0-3/108--8-8-8-8--8-8-8-8--10--5--5-5-5-5-5--3--5--5-5-5-5-5-5--3-5--|
C|--0--0-0-0-3/108--8-8-8-8--8-8-8-8--10--5--5-5-5-5-5--3--5--5-5-5-5-5-5--3-5--|
D|-------------------------------------------------------------------------------|
A|-------------------------------------------------------------------------------|
F|-------------------------------------------------------------------------------|
C|-------------------------------------------------------------------------------|
G|--0--0-0-0-3/108--8-8-8-8--8-8-8-8--10--5--5-5-5-5-5--3--5--5-5-5-5-5-5--3-5--|
C|--0--0-0-0-3/108--8-8-8-8--8-8-8-8--10--5--5-5-5-5-5--3--5--5-5-5-5-5-5--3-5--|
D|-------------------------------------------------------------------------------|
A|-------------------------------------------------------------------------------|
F|-------------------------------------------------------------------------------|
C|-------------------------------------------------------------------------------|
G|--0--0-0-0-3/108--8-8-8-8--8-8-8-8--10--5--5-5-5-5-5--3--5--5-5-5-5-5-5--3-5--|
C|--0--0-0-0-3/108--8-8-8-8--8-8-8-8--10--5--5-5-5-5-5--3--5--5-5-5-5-5-5--3-5--|
D|-------------------------------------------------------------|
A|-------------------------------------------------------------|
F|-------------------------------------------------------------|
C|-------------------------------------------------------------|
G|--0--0-0-0-3/108--8-8-8-8--8-8-8-8--10--5--5-5-5-5-5--3--5--|
C|--0--0-0-0-3/108--8-8-8-8--8-8-8-8--10--5--5-5-5-5-5--3--5--|

[Pre bridge – both guitars}


D|-------------------| Small lick before the bridge/solo
A|-------------------|
F|-------------------|
C|-------------------|
G|------8p5-----3h5--|
C|--0-0-----0-0------|

PM

During the bridge part below the solo is played. Havent completely figured the solo out yet, but I’ll update
the tab as soon as I do!

[Bridge 1 – both guitars]


D|--------------------------------------------------|----------------------------------------------------|
A|--------------------------------------------------|----------------------------------------------------|
F|--------------------------------------------------|----------------------------------------------------|
C|--0-----------------------------------------------|--0-------------------------------------------------|
G|--0--------------5--x-x--------------8p5-----3h5--|--0--------------5----x-x--------------8p5-----3h5--|
C|--0--0-0-5p3-0-0----x-x--0-0-5p3-0-0-----0-0------|--0--0-0-5p3-0-0----0-x-x--0-0-5p3-0-0-----0-0------|

PM


D|--------------------------------------------------|----------------------------------------------------|
A|--------------------------------------------------|----------------------------------------------------|
F|--------------------------------------------------|----------------------------------------------------|
C|--0-----------------------------------------------|--0-------------------------------------------------|
G|--0--------------5--x-x--------------8p5-----3h5--|--0--------------5----x-x--------------8p5-----3h5--|
C|--0--0-0-5p3-0-0----x-x--0-0-5p3-0-0-----0-0------|--0--0-0-5p3-0-0----0-x-x--0-0-5p3-0-0-----0-0------|

PM


D|--------------------------------------------------|----------------------------------------------------|
A|--------------------------------------------------|----------------------------------------------------|
F|--------------------------------------------------|----------------------------------------------------|
C|--0-----------------------------------------------|--0-------------------------------------------------|
G|--0--------------5--x-x--------------8p5-----3h5--|--0--------------5----x-x--------------8p5-----3h5--|
C|--0--0-0-5p3-0-0----x-x--0-0-5p3-0-0-----0-0------|--0--0-0-5p3-0-0----0-x-x--0-0-5p3-0-0-----0-0------|

PM

[Birdge 2 – rhythm] begins after 4 beats


D|-------------------------------------|Play this 3 times
A|-------------------------------------|
F|-------------------------------------|
C|--3--3-3---5--5-5----7--7-7--7--7-7--|
G|--1--1-1---3--3-3----5--5-5--5--5-5--|
C|-------------------------------------|

PM


D|-------------------------------------|4th time
A|-------------------------------------|
F|-------------------------------------|
C|-------------------------------------|
C|--3--3-3---5--5-5----7--7-7--7-------|
G|--1--1-1---3--3-3----5--5-5--5-------|

PM


D|-------------------| Small lick before the chorus
A|-------------------|
F|-------------------|
C|-------------------|
G|------8p5-----3h5--|
C|--0-0-----0-0------|

PM

[Chorus 2 – both guitars] Listen to the song for the excact rhyhtm timing


D|-------------------------------------------------------------------------------|
A|-------------------------------------------------------------------------------|
F|-------------------------------------------------------------------------------|
C|-------------------------------------------------------------------------------|
G|--0--0-0-0-3/108--8-8-8-8--8-8-8-8--10--5--5-5-5-5-5--3--5--5-5-5-5-5-5--3-5--|
C|--0--0-0-0-3/108--8-8-8-8--8-8-8-8--10--5--5-5-5-5-5--3--5--5-5-5-5-5-5--3-5--|
D|-------------------------------------------------------------------------------|
A|-------------------------------------------------------------------------------|
F|-------------------------------------------------------------------------------|
C|-------------------------------------------------------------------------------|
G|--0--0-0-0-3/108--8-8-8-8--8-8-8-8--10--5--5-5-5-5-5--3--5--5-5-5-5-5-5--3-5--|
C|--0--0-0-0-3/108--8-8-8-8--8-8-8-8--10--5--5-5-5-5-5--3--5--5-5-5-5-5-5--3-5--|
D|-------------------------------------------------------------------------------|
A|-------------------------------------------------------------------------------|
F|-------------------------------------------------------------------------------|
C|-------------------------------------------------------------------------------|
G|--0--0-0-0-3/108--8-8-8-8--8-8-8-8--10--5--5-5-5-5-5--3--5--5-5-5-5-5-5--3-5--|
C|--0--0-0-0-3/108--8-8-8-8--8-8-8-8--10--5--5-5-5-5-5--3--5--5-5-5-5-5-5--3-5--|
D|--------------------------------------------------------------------------------|
A|--------------------------------------------------------------------------------|
F|--------------------------------------------------------------------------------|
C|--------------------------------------------------------------------------------|
G|--0--0-0-0-3/108--8-8-8-8--8-8-8-8--10--5--5-5-5-5-5--3--5-555------------3h5--|
C|--0--0-0-0-3/108--8-8-8-8--8-8-8-8--10--5--5-5-5-5-5--3--5-555-0-0-5p3-0-0-----|

PM

[Outro – both guitars]


D|----------------------------------------------------|----------------------------------------------------|
A|----------------------------------------------------|----------------------------------------------------|
F|----------------------------------------------------|----------------------------------------------------|
C|--0-------------------------------------------------|--0-------------------------------------------------|
G|--0--------------5----x-x--------------8p5-----3h5--|--0--------------5----x-x--------------8p5-----3h5--|
C|--0--0-0-5p3-0-0----0-x-x--0-0-5p3-0-0-----0-0------|--0--0-0-5p3-0-0----0-x-x--0-0-5p3-0-0-----0-0------|

PM


D|--------------------|--------------------|-----------------------|------------------------------|
A|--------------------|--------------------|-----------------------|------------------------------|
F|--------------------|--------------------|-----------------------|------------------------------|
C|--0-----------------|--0-----------------|-----0-----------------|--0---------------------------|
G|--0--------------5--|--0--------------5--|-x-x-0--------------5--|--0--------------8p5-----3h5--|
C|--0--0-0-5p3-0-0----|--0--0-0-5p3-0-0----|-x-x-0--0-0-5p3-0-0----|--0--0-0-5p3-0-0-----0-0------|

PM


 

If you want to master Nickelback Feed the Machine guitar chords, The 5 chords we’ll look at are the C major, A major, G major, E major, and D major.
The reason we use all major chords is that the minor versions of any of these chords just lack tiny adjustments.
Every of those minor chords is perfectly based on its major counterpart

The more you practice, the easier guitar will feel to play Feed the Machine. Guitar is tough to study in the beginning, but gets easier the more time you stick with it.

Leave a Comment