Bless The Telephone by Labi Siffre Guitar Chords

If you are looking for Bless The Telephone guitar chords, you have visit to the perfect place.
You can play Bless The Telephone by Labi Siffre using guitar or guitar.
This song by Labi Siffre can also be played by that device.
=

Bless The Telephone guitar chords has swing and included in The Singer and the Song (2006) album.
You can also find more musical style, including jazz guitar chords, country music guitar chords, pop guitar chords, world music guitar chords, and rock guitar chords here.

Bless The Telephone by Labi Siffre Guitar Chords


-------------------------------------------------------------------------------

BLESS THE TELEPHONE – Labi Siffre


-------------------------------------------------------------------------------

Tabbed by: Derrick Cullen
Email: cullenbro2@comcast.net

Tuning: EADGBe

Intro:


e|-----------3-----------2-----------0-----------0-----------0-----------0---|
B|--------0-----------3-----------0-----------0-----------1-----------1------|
G|-----0-----------2-----------0-----------0-----------2-----------0---------|
D|--------------0------------------------------------------------------------|
A|--------------------------------------------------0-----------3------------|
E|--3-----------------------0-----------0------------------------------------|


e|--------2-----2-----2------------------------------------------------------|
B|--------3-----3-----3------------------------------------------------------|
G|-----2-----2-----2---------------------------------------------------------|
D|--0------------------------------------------------------------------------|
A|---------------------------------------------------------------------------|
E|---------------------------------------------------------------------------|

Verse One:


e|-----------------------3-----------------------2-----------------------0---|
B|-----------------0-----------------------3-----------------------0---------|
G|-----------0-----------------------2-----------------------0---------------|
D|-----------------------------0---------------------------------------------|
A|---------------------------------------------------------------------------|
E|-----3-----------------------------------------------0---------------------|

It’s nice to hear your voice a – gain


e|-----------------------0-----------------------0-----------------------0---|
B|-----------------0-----------------------1-----------------------1---------|
G|-----------0-----------------------2-----------------------0---------------|
D|---------------------------------------------------------------------------|
A|-----------------------------0-----------------------3---------------------|
E|-----0---------------------------------------------------------------------|

I’ve wai – ted all day long


e|-----------------2-----------2-----------2-----------------------------0---|
B|-----------------3-----------3-----------3-----------------------0---------|
G|-----------2-----------2-----------2-----------2-----------0---------------|
D|-----0---------------------------------------------------------------------|
A|---------------------------------------------------------------------------|
E|-----------------------------------------------------0---------------------|

e – ven wrote a song for you It’s strangethe


e|-----------------------2-----------------------0-----------------------0---|
B|-----------------3-----------------------0-----------------------0---------|
G|-----------2-----------------------0-----------------------0---------------|
D|-----0---------------------------------------------------------------------|
A|---------------------------------------------------------------------------|
E|-----------------------------0-----------------------0---------------------|

way you make me feel


e|-----------------------0-----------------------0-------------------2-------|
B|-----------------1-----------------------1-------------------------3-------|
G|-----------2-----------------------0-------------------------2-----------2-|
D|------------------------------------------------------0--------------------|
A|-----0-----------------------3---------------------------------------------|
E|---------------------------------------------------------------------------|

With just a word or two I’d like to


e|-----2-----------2-----------------------------3-----------------------2---|
B|-----3-----------3-----------------------0-----------------------3---------|
G|-----------2-----------2-----------0-----------------------2---------------|
D|-----------------------------------------------------0---------------------|
A|---------------------------------------------------------------------------|
E|-----------------------------0---------------------------------------------|

do the same for you


e|-----------------------0-----------------------0-----------------------0---|
B|-----------------0-----------------------0-----------------------1---------|
G|-----------0-----------------------0-----------------------2---------------|
D|---------------------------------------------------------------------------|
A|-----------------------------------------------------0---------------------|
E|-----0-----------------------0---------------------------------------------|


e|-----------------------0------------------2-----------2-----------2--------|
B|-----------------1------------------------3-----------3-----------3--------|
G|-----------0------------------------2-----------2-----------2-----------2--|
D|------------------------------0--------------------------------------------|
A|-----3---------------------------------------------------------------------|
E|---------------------------------------------------------------------------|

Verse Two:


e|-----------------------3-----------------------2-----------------------0---|
B|-----------------0-----------------------3-----------------------0---------|
G|-----------0-----------------------2-----------------------0---------------|
D|-----------------------------0---------------------------------------------|
A|---------------------------------------------------------------------------|
E|-----3-----------------------------------------------0---------------------|

It’s nice to hear you say he – llo


e|-----------------------0-----------------------0-----------------------0---|
B|-----------------0-----------------------1-----------------------1---------|
G|-----------0-----------------------2-----------------------0---------------|
D|---------------------------------------------------------------------------|
A|-----------------------------0-----------------------3---------------------|
E|-----0---------------------------------------------------------------------|

And how are thingswith you


e|-----------------2-----------2-----------2-----------------------------0---|
B|-----------------3-----------3-----------3-----------------------0---------|
G|-----------2-----------2-----------2-----------2-----------0---------------|
D|-----0---------------------------------------------------------------------|
A|---------------------------------------------------------------------------|
E|-----------------------------------------------------0---------------------|

I love yo – u But ve — ry


e|-----------------------2-----------------------0-----------------------0---|
B|-----------------3-----------------------0-----------------------0---------|
G|-----------2-----------------------0-----------------------0---------------|
D|-----0---------------------------------------------------------------------|
A|---------------------------------------------------------------------------|
E|-----------------------------0-----------------------0---------------------|

soon it’s time to go


e|-----------------------0-----------------------0-------------------2-------|
B|-----------------1-----------------------1-------------------------3-------|
G|-----------2-----------------------0-------------------------2-----------2-|
D|------------------------------------------------------0--------------------|
A|-----0-----------------------3---------------------------------------------|
E|---------------------------------------------------------------------------|

An off – ice job to do While I’m here


e|-----2-----------2-----------------------------3-----------------------2---|
B|-----3-----------3-----------------------0-----------------------3---------|
G|-----------2-----------2-----------0-----------------------2---------------|
D|-----------------------------------------------------0---------------------|
A|---------------------------------------------------------------------------|
E|-----------------------------0---------------------------------------------|

wri – ting songs for you


e|-----------------------0-----------------------0-----------------------0---|
B|-----------------0-----------------------0-----------------------1---------|
G|-----------0-----------------------0-----------------------2---------------|
D|---------------------------------------------------------------------------|
A|-----------------------------------------------------0---------------------|
E|-----0-----------------------0---------------------------------------------|


e|-----------------------0------------------2-----------2-----------2--------|
B|-----------------1------------------------3-----------3-----------3--------|
G|-----------0------------------------2-----------2-----------2-----------2--|
D|------------------------------0--------------------------------------------|
A|-----3---------------------------------------------------------------------|
E|---------------------------------------------------------------------------|

Bridge:


e|-----------------------3-----------------------3-----------------------3---|
B|-----------------0-----------------------0-----------------------0---------|
G|-----------0-----------------------0-----------------------0---------------|
D|---------------------------------------------------------------------------|
A|---------------------------------------------------------------------------|
E|-----3-----------------------3-----------------------3---------------------|


e|-----------------------3-----------------0-----------0-----------0---------|
B|-----------------0-----------------------0-----------0-----------0---------|
G|-----------0-----------------------0-----------0-----------0-----------0---|
D|---------------------------------------------------------------------------|
A|---------------------------------------------------------------------------|
E|-----3-----------------------0---------------------------------------------|

Str – a – a – a – nge how a phone


e|-----------------0-----------0-----------0-----------------------0---------|
B|-----------------1-----------1-----------1-----------------------1---------|
G|-----------2-----------2-----------2-----------2-----------0-----------0---|
D|---------------------------------------------------------------------------|
A|-----0-----------------------------------------------3---------------------|
E|---------------------------------------------------------------------------|

call can cha – nge your day


e|-----0-----------0-----------------------3-----------3-----------3---------|
B|-----1-----------1-----------------------0-----------0-----------0---------|
G|-----------0-----------0-----------0-----------0-----------0-----------0---|
D|---------------------------------------------------------------------------|
A|---------------------------------------------------------------------------|
E|-----------------------------3---------------------------------------------|

take you a – way a – wa –


e|-----------------0-----------0-----------0-----------------------1---------|
B|-----------------0-----------0-----------0-----------------------0---------|
G|-----------0-----------0-----------0-----------0-----------2-----------2---|
D|---------------------------------------------------------------------------|
A|-----------------------------------------------------0---------------------|
E|-----0---------------------------------------------------------------------|

– y From this fee – ling of


e|-----0-----------0-----------------------0-----------0-----------0---------|
B|-----1-----------1-----------------------1-----------1-----------1---------|
G|-----------2-----------2-----------0-----------0-----------0-----------0---|
D|---------------------------------------------------------------------------|
A|-----------------------------3---------------------------------------------|
E|---------------------------------------------------------------------------|
be -- ing a - lone Bless the te -- le -


e|-----------------------3-----------------------2-----------------------0---|
B|-----------------0-----------------------3-----------------------0---------|
G|-----------0-----------------------2-----------------------0---------------|
D|-----------------------------0---------------------------------------------|
A|---------------------------------------------------------------------------|
E|-----3-----------------------------------------------0---------------------|

phone


e|-----------------------0-----------------------0-----------------------0---|
B|-----------------0-----------------------1-----------------------1---------|
G|-----------0-----------------------2-----------------------0---------------|
D|---------------------------------------------------------------------------|
A|-----------------------------0-----------------------3---------------------|
E|-----0---------------------------------------------------------------------|


e|-----------------2-----------2-----------2---------------------------------|
B|-----------------3-----------3-----------3---------------------------------|
G|-----------2-----------2-----------2-----------2---------------------------|
D|-----0---------------------------------------------------------------------|
A|---------------------------------------------------------------------------|
E|---------------------------------------------------------------------------|

Verse Three:


e|-----------------------3-----------------------2-----------------------0---|
B|-----------------0-----------------------3-----------------------0---------|
G|-----------0-----------------------2-----------------------0---------------|
D|-----------------------------0---------------------------------------------|
A|---------------------------------------------------------------------------|
E|-----3-----------------------------------------------0---------------------|

It’s nice the way you say my name


e|-----------------------0-----------------------0-----------------------0---|
B|-----------------0-----------------------1-----------------------1---------|
G|-----------0-----------------------2-----------------------0---------------|
D|---------------------------------------------------------------------------|
A|-----------------------------0-----------------------3---------------------|
E|-----0---------------------------------------------------------------------|

Not ve — ry fast or slow


e|-----------------2-----------2-----------2-----------------------------0---|
B|-----------------3-----------3-----------3-----------------------0---------|
G|-----------2-----------2-----------2-----------2-----------0---------------|
D|-----0---------------------------------------------------------------------|
A|---------------------------------------------------------------------------|
E|-----------------------------------------------------0---------------------|

just soft and low The same as when you


e|-----------------------2-----------------------0-----------------------0---|
B|-----------------3-----------------------0-----------------------0---------|
G|-----------2-----------------------0-----------------------0---------------|
D|-----0---------------------------------------------------------------------|
A|---------------------------------------------------------------------------|
E|-----------------------------0-----------------------0---------------------|

tell me how you feel


e|-----------------------0-----------------------0-------------------2-------|
B|-----------------1-----------------------1-------------------------3-------|
G|-----------2-----------------------0-------------------------2-----------2-|
D|------------------------------------------------------0--------------------|
A|-----0-----------------------3---------------------------------------------|
E|---------------------------------------------------------------------------|

I feel the same way, too I’m ve — ry


e|-----2-----------2-----------------------------3-----------------------2---|
B|-----3-----------3-----------------------0-----------------------3---------|
G|-----------2-----------2-----------0-----------------------2---------------|
D|-----------------------------------------------------0---------------------|
A|---------------------------------------------------------------------------|
E|-----------------------------0---------------------------------------------|

much in love with you


e|-----------------------0-----------------------0-----------------------0---|
B|-----------------0-----------------------0-----------------------1---------|
G|-----------0-----------------------0-----------------------2---------------|
D|---------------------------------------------------------------------------|
A|-----------------------------------------------------0---------------------|
E|-----0-----------------------0---------------------------------------------|


e|-----------------------0------------------2-----------2-----------2--------|
B|-----------------1------------------------3-----------3-----------3--------|
G|-----------0------------------------2-----------2-----------2-----------2--|
D|------------------------------0--------------------------------------------|
A|-----3---------------------------------------------------------------------|
E|---------------------------------------------------------------------------|

I’m ve — ry much in love with


e|-----------------------3-----------------------2-----3---------------------|
B|-----------------0-----------------------3---------------------------------|
G|-----------0-----------------------2---------------------------------------|
D|-----------------------------0---------------------------------------------|
A|---------------------------------------------------------------------------|
E|-----3-----------------------------------------------3---------------------|

you

END

| / slide up
| slide down
| h hammer-on
| p pull-off
| ~ vibrato
| + harmonic
| x Mute note


 

If you want to master Labi Siffre Bless The Telephone guitar chords, The 5 chords we’ll look at are the C major, A major, G major, E major, and D major.
The reason we use all major chords is that the minor versions of any of these chords just require tiny adjustments.
Every of those minor chords is completely based on its major counterpart

The more you practice, the simple guitar will feel to play Bless The Telephone. Guitar is tough to master in the beginning, but gets easier the longer you stick with it.

Leave a Comment