Surazul by La Ley Guitar Chords

When you looking for Surazul guitar chords, you just visit to the right place.
You can play Surazul by La Ley using guitar or guitar.
This song by La Ley can also be played by that instruments.
=

Surazul guitar chords has swing and included in Libertad (2003) album.
You can also find other musical category, along with jazz guitar chords, country music guitar chords, pop guitar chords, world music guitar chords, and rock guitar chords here.

Surazul by La Ley Guitar Chords


-----------------------------------------------------------------------------

Surazul-La Ley


-----------------------------------------------------------------------------

Tabbed by:Fan
Email:
Guitar
Tuning:Normal

E A D G B e
C x 3 2 0 1 0
Fmaj x x 3 2 1 0
G 3 2 0 0 0 3
Am x x 2 2 1 0

Intro


e|----------------------------------------------------------------------------|
B|----------------------------------------------------------------------------|
G|----------------------------------------------5-7-7/9~---7/9-7-5----5/7-5---|
D|------------------------------------------5-7--------------------7~------7--|
A|-----3-5-5/7~---5/7-5-3----3------------------------------------------------|
E|-3-5---------------------5~--5-3~-0-3-4/5~----------------------------------|


e|----------------------------------------------------------------------------|
B|----------------------------------------------------------------------------|
G|-----------------4/5-4------------------------------------------------------|
D|-5~-----5--5/7~--------5----------------------------------------------------|
A|----5-7---------------------------------------------------------------------|
E|----------------------------------------------------------------------------|

Solo suea y dime
Si todo esto es real
Solo suea y dime
Si podremos llegar.

Juntos aunque la distancia
Nos deje ver
Que el amor es algo ms.

Solo suea y dime
Si hay posibilidad
Solo suea y dime
Que jams cambiars.

Aunque algunas circunstancias
No dejen ver
Que es posible proyectarse.

Me vers en el sur
Donde el mar es triste y azul
Juntos aunque la distancia
Nos deje ver
Que el amor es algo ms.

Solo


e|----------------------------------------------------------------------------|
B|-------------------------------------10-8---10-8---10-8---------------------|
G|-----5-5--------5-5---5-5~5h7-5----9------9------9------9--7/9-7-5--------5-|
D|-5/7------7~5/7-----7-----------7~---------------------------------7~-5-7---|
A|----------------------------------------------------------------------------|
E|----------------------------------------------------------------------------|


e|--------------------------------------------7/8/7-----7/8/7---8/10--10-8-|
B|--------10/12~10/12-------------------------------10---------------------|
G|5-5/7~---7/9~-7/9----7-5-9~-(x2)------------------------------|
D|------------------------7~------7-5--------------------------------------|
A|-------------------------------------------------------------------------|
E|-------------------------------------------------------------------------|


e|-7-8-7-----10-8-7----------------------------------|
B|-------8~---------8-10-8-----8---------------------|
G|-------------------------9-7---9-7-5------5/7/9----|
D|-------------------------------------7-5-----------|
A|---------------------------------------------------|
E|---------------------------------------------------|

Solo suea y dime
Seguiremos aca
Solo suea y dime
Con esfuerzo avanzar
Juntos aunque la impaciencia
Nos deje ver
Que es difcil perdurar.

Me vers en el sur
Donde el mar es triste y azul
Me vers en el sur
Donde el mar es triste y azul
Surazul
Surazul
Surazul…

Escucha la cancion muy bien y
toca con eya.
Usa el hold note(~) y los slides(/)

| / slide up
| slide down
| h hammer-on
| p pull-off
| ~ hold note
| + harmonic
| x Mute note
b Bend Note 1 whole step
r Release note


 

If you want to learn La Ley Surazul guitar chords, The 5 chords we’ll look at are the C major, A major, G major, E major, and D major.
The reason we use all major chords is that the minor versions of any of these chords just lack tiny adjustments.
Every of those minor chords is entirely based on its major counterpart

The more you practice, the smooth guitar will feel to play Surazul. Guitar is not easy to learn in the beginning, but gets easier the more time you stick with it.

Leave a Comment