Push Me Away by Kutless Guitar Chords

When you looking for Push Me Away guitar chords, you just visit to the right place.
You can play Push Me Away by Kutless using guitar or guitar.
This song by Kutless can also be played by that equipment.
=

Push Me Away guitar chords has rhythm and included in Hearts of the Innocent (2006) album.
You can also find alternative musical category, including jazz guitar chords, country music guitar chords, pop guitar chords, world music guitar chords, and rock guitar chords here.

Push Me Away by Kutless Guitar Chords


Copyright2006 BEC Recordings
Drop C# Tuning C#-G#-C#-F#-A#-D#

bbend
rbreturn bend
hhammer on
sbslight bend

Intro
Gtr. 2


F#[-9----9----7----]
C#[-9----7----7----]
G#[-7----7----5----]
C#[------7---------]

Gtr. 1


D#[12/12-----12/12-----12--12/12-----12/12-----12--12/12-----12/12-----12---]
A#[-----12/12-----12/12--12-----10/10-----10/10--10-----15/15-----15/15--15-]
D#[-14/14-----14/14-----14---12----]
A#[------15/15-----15/15--15-------]

Verse 1
Gtr. 2


F#[-9----9----7----7----]
C#[-9----7----5----5----]
G#[-7----7----5----5----]x2
C#[------7----5----5----]

Then
Gtr. 2


F#[-5----7----7----4----5----7----]
C#[-5----7----5----2----5----7----]
G#[-3----5----5----2----3----5----]
C#[-----------5----2--------------]

Gtr. 1


F#[-9---11----12---14--16-9----11----]
C#[-x----x-----x----x---x-x-----x----]
G#[-7----9----10---12--14-7-----9----]

Chorus


C#[-2/2---2---5/5---5---0----7----]
G#[-2/2-7/2/7-5/5-7/5/7-0----7----]x3
C#[-2/2---2---5/5---5---0----7----]

Then
Gtr. 2


F#[-5----7----]
C#[-5----7----]
G#[-3----5----]

Gtr. 1


C#[-9/7/9/7--7-9brb-7/5/7/5------------]
G#[--------7---------------9-7/9brb----]

Verse 2
Gtr. 2


F#[-9----9----7----7----]
C#[-9----7----5----5----]
G#[-7----7----5----5----]x2
C#[------7----5----5----]

Gtr. 1


D#[12/12-----12/12-----12--12/12-----12/12-----12--12/12-----12/12-----12---]
A#[-----12/12-----12/12--12-----10/10-----10/10--10-----15/15-----15/15--15-]
D#[-14/14-----14/14-----14---12----]
A#[------15/15-----15/15--15-------]
D#[12/12-----12/12-----12--12/12-----12/12-----12--12/12-----12/12-----12---]
A#[-----12/12-----12/12--12-----10/10-----10/10--10-----15/15-----15/15--15-]
D#[-14/14-----14/14-----14---12----]
A#[------15/15-----15/15--15-------]

Then
Gtr. 2


F#[-5----7----7----4----5----7----]
C#[-5----7----5----2----5----7----]
G#[-3----5----5----2----3----5----]
C#[-----------5----2--------------]

Gtr. 1


F#[-9---11----12---14--16-9----11----]
C#[-x----x-----x----x---x-x-----x----]
G#[-7----9----10---12--14-7-----9----]

Chorus

Bridge
Gtr. 2


F#[-5----7----]
C#[-5----7----]
G#[-3----5----]

Gtr. 1


F#[-9/9/9--7--7--4/4/4--2--2--]

Then
Gtr. 2


C#[-----------------0/2-2----]
G#[-----------------0/2-2----]x2
C#[-5h7/7-5h7/7-5h7-0/2-2----]

Gtr. 1


A#[-8-8-8-8-10b--8-8-8-8-10/8-8----]
F#[--9-9-9-9------9-9-9-9----9-----]

Then
Gtr. 2


F#[-5----7----]
C#[-5----7----]
G#[-3----5----]

Gtr. 1


F#[-9/9/9--7--7--4/4/4--2--2--]

Then
Gtr. 2


C#[-----------------0/2-2----]
G#[-----------------0/2-2----]x2
C#[-5h7/7-5h7/7-5h7-0/2-2----]

Gtr. 1


A#[-8-8-8-8-10b--8-8-8-8-10/8-8----]
F#[--9-9-9-9------9-9-9-9----9-----]

Then
Gtr. 2


F#[-5----4----]
C#[-5----4----]
G#[-3----2----]

Gtr. 1


F#[-9/9/9--7--7/5/4/5--11/11/11--11/9/8/9--]

Chorus

Ending


G#[-2sb/0/2sb/0----2-2--------------5-5/5--]
C#[------------2--2-2--5-5-7/5-7-0-0-0-----]x4

Tabbed by Adam K


 

If you want to learn Kutless Push Me Away guitar chords, The 5 chords we’ll look at are the C major, A major, G major, E major, and D major.
The reason we use all major chords is that the minor versions of any of these chords just lack tiny adjustments.
Every of those minor chords is entirely based on its major counterpart

The more you practice, the simple guitar will feel to play Push Me Away. Guitar is tough to learn in the beginning, but gets easier the more time you stick with it.

Leave a Comment