Juggalo Homies by Insane Clown Posse Guitar Chords

If you are looking for Juggalo Homies guitar chords, you just visit to the best site.
You can play Juggalo Homies by Insane Clown Posse using guitar or guitar.
This song by Insane Clown Posse can also be played by that instruments.
=

Juggalo Homies guitar chords has rhythm and included in The Wraith: Shangri-La (2002) album.
You can also find more musical style, as well as jazz guitar chords, country music guitar chords, pop guitar chords, world music guitar chords, and rock guitar chords here.

Juggalo Homies by Insane Clown Posse Guitar Chords


Juggalo Homies

Intro:


e|--------0-------------------------------0-----------------------------------|
B|--------0-------------------------------0-----------------------------------|
G|-------------------------------------------------------------9--------------|
D|----2--------xx---2--4--7--2--xx---2---------xx---2-4--7--2--9h11-9p7-------|
A|-2h4--x---4--xx2h4---5--9--4--xx2h4--x----4--xx2h4--5--9--4----------9p7----|
E|------x------------------------------x--------------------------------------|

Lead Guitar:
[0:02] [0:05] [0:08]


e|---------12----12--|-----------------------------|--------------------------------|
B|---------12-12-12--|-----------------------------|--------------------------------|
G|------------11-----|-11b(full)r-9-11-------11s9--|-----9----9----9----9----9v~~~~-|
D|-------------------|-----------------13-11-------|-9h11-9h11-9h11-9h11-9h11-------|
A|-------------------|-----------------------------|--------------------------------|
E|-------------------|-----------------------------|--------------------------------|

Verse 1:


e|--------0-------------------------------0--------------------|
B|--------0-------------------------------0--------------------|
G|-------------------------------------------------------------|
D|----2--------xx---2--4--7--2--xx---2---------xx---2-4--7--2--|
A|-2h4--x---4--xx2h4---5--9--4--xx2h4--x----4--xx2h4--5--9--4--|
E|------x------------------------------x-----------------------|

Lead Guitar:
[0:21] [0:26] [0:37] [0:40]


e|---------------|--12~~~-----|--------|--------------------|
B|---------------|---12~~~----|--------|--------------------|
G|-----9s11s9v~~-|------------|-----9--|-11p9--11-9---------|
D|-9h11----------|------------|-9h11---|-----11-------------|
A|---------------|------------|--------|--------------------|
E|---------------|------------|--------|--------------------|

Pre-chorus 1:


e|-------------------------------------------------------------|
B|-------------3---------------3-------------------------------|
G|-x-2---------2---x-2---------2-------------------------------|
D|-x-2-----2H4-----x-2-----2H4---------------------------------|
A|-x-0-------------x-0-----------------------------------------|
E|-------------------------------------------------------------|

chorus 1:


e|--------------------------|----------------------------------------|
B|--------------------------|----------------------------------------|
G|--------------6-6--4--4-4-|----------------------------------------|
D|-2--x-2--2-2--6-6--4--4-4-|----7-7-7-7-7-7-7-7--9-9-9-9-9-9------2-|
A|-2--x-2--2-2--4-4--2--2-2-|----7-7-7-7-7-7-7-7--9-9-9-9-9-9--2H4---|
E|-0--x-0--0-0--------------|----5-5-5-5-5-5-5-5--7-7-7-7-7-7--------|

(Repeat 3x)

Verse 2:


e|-----0-------------------------------0--------------------|
B|-----0-------------------------------0--------------------|
G|----------------------------------------------------------|
D|----------xx---2--4--7--2--xx---2---------xx---2-4--7--2--|
A|---x---4--xx2h4---5--9--4--xx2h4--x----4--xx2h4--5--9--4--|
E|---x------------------------------x-----------------------|

Lead Guitar:
[1:22]


e|-9-11-12--14--12--9-12-----------------------------|-------|
B|-------------------------12--9s7-------------------|-------|
G|--------------------------------9---9s11-9v~~~~~~~-|-------|
D|----------------------------------11---------------|-------|
A|---------------------------------------------------|-------|
E|---------------------------------------------------|-------|

Pre-chorus 2:


e|-------------------------------------------------------------|
B|-------------3---------------3-------------------------------|
G|-x-2---------2---x-2---------2-------------------------------|
D|-x-2-----2H4-----x-2-----2H4---------------------------------|
A|-x-0-------------x-0-----------------------------------------|
E|-------------------------------------------------------------|

chorus 2:


e|--------------------------|----------------------------------------|
B|--------------------------|----------------------------------------|
G|--------------6-6--4--4-4-|----------------------------------------|
D|-2--x-2--2-2--6-6--4--4-4-|----7-7-7-7-7-7-7-7--9-9-9-9-9-9------2-|
A|-2--x-2--2-2--4-4--2--2-2-|----7-7-7-7-7-7-7-7--9-9-9-9-9-9--2H4---|
E|-0--x-0--0-0--------------|----5-5-5-5-5-5-5-5--7-7-7-7-7-7--------|

(Repeat 3x)

U don’t Like me you can “fk OFF” 1:


e|-----0-------------------------------0-------------------------------|
B|-----0-------------------------------0-------------------------------|
G|---------------------------------------------------------------------|
D|----------xx---2--4--7--2--xx---2---------xx---2-4--7--2-xx---2------|
A|---2---4--xx2h4---5--9--4--xx2h4--2----4--xx2h4--5--9--4-xx2h4-------|
E|---0------------------------------0----------------------------------|

Verse 3:


e|-----0--------|
B|-----0--------|
G|--------------|
D|--------------|
A|---2----------|
E|---0----------|

(Every time when it was supposed to be looped)

Lead guitar:
[2:30] [2:46]


e|-------------|-----------------------------------|
B|-------------|-----------------------------------|
G|--11b(Full)--|--11b(full)--r-11b(full)r-9s11s9---|
D|-------------|-----------------------------------|
A|-------------|-----------------------------------|
E|-------------|-----------------------------------|

[2:53]


e|--12p9--------------------------|
B|--------------------11p9--------|
G|------------------------11-9----|
D|--------------------------------|
A|--------------------------------|
E|--------------------------------|

Pre-chorus 3:


e|-------------------------------------------------------------|
B|-------------3---------------3-------------------------------|
G|-x-2---------2---x-2---------2-------------------------------|
D|-x-2-----2H4-----x-2-----2H4---------------------------------|
A|-x-0-------------x-0-----------------------------------------|
E|-------------------------------------------------------------|

Lead Guitar:


e|-----------------------------------------------------|
B|-----------------------------------------------------|
G|-----------------------------------------------------|
D|--7h9p7--7h9-p7--------------------------------------|
A|-----------------------------------------------------|
E|-----------------------------------------------------|

chorus 3:


e|--------------------------|----------------------------------------|
B|--------------------------|----------------------------------------|
G|--------------6-6--4--4-4-|----------------------------------------|
D|-2--x-2--2-2--6-6--4--4-4-|----7-7-7-7-7-7-7-7--9-9-9-9-9-9------2-|
A|-2--x-2--2-2--4-4--2--2-2-|----7-7-7-7-7-7-7-7--9-9-9-9-9-9--2H4---|
E|-0--x-0--0-0--------------|----5-5-5-5-5-5-5-5--7-7-7-7-7-7--------|

(Repeat 3x)

U don’t Like me you can “fk OFF” 2:


e|-----0-------------------------------0-----------------------------0---------------------------|
B|-----0-------------------------------0-----------------------------0---------------------------|
G|-----------------------------------------------------------------------------------------------|
D|----------xx---2--4--7--2--xx---2---------xx---2-4--7--2-xx---2---------xx---2-4--7--2-xx---2--|
A|---2---4--xx2h4---5--9--4--xx2h4--2----4--xx2h4--5--9--4-xx2h4--2----4--xx2h4--5--9--4-xx2h4---|
E|---0------------------------------0-----------------------------0------------------------------|
e|-----------------------------------------------------|
B|-----------------------------------------------------|
G|-----------------------------------------------------|
D|-7-7-7-7-7-7-7-7--9-9-9-9-9-9------------------------|
A|-7-7-7-7-7-7-7-7--9-9-9-9-9-9------------------------|
E|-5-5-5-5-5-5-5-5--7-7-7-7-7-7------------------------|

chorus 4:


e|--------------------------|----------------------------------------|
B|--------------------------|----------------------------------------|
G|--------------6-6--4--4-4-|----------------------------------------|
D|-2--x-2--2-2--6-6--4--4-4-|----7-7-7-7-7-7-7-7--9-9-9-9-9-9------2-|
A|-2--x-2--2-2--4-4--2--2-2-|----7-7-7-7-7-7-7-7--9-9-9-9-9-9--2H4---|
E|-0--x-0--0-0--------------|----5-5-5-5-5-5-5-5--7-7-7-7-7-7--------|

(Repeat 3x)

U don’t Like me you can “fk OFF” 3 (Outro) :


e|-----0-------------------------------0-----------------------------0---------------------------|
B|-----0-------------------------------0-----------------------------0---------------------------|
G|-----------------------------------------------------------------------------------------------|
D|----------xx---2--4--7--2--xx---2---------xx---2-4--7--2-xx---2---------xx---2-4--7--2-xx---2--|
A|---2---4--xx2h4---5--9--4--xx2h4--2----4--xx2h4--5--9--4-xx2h4--2----4--xx2h4--5--9--4-xx2h4---|
E|---0------------------------------0-----------------------------0------------------------------|
e|-----------------------------------------------------|
B|-----------------------------------------------------|
G|-----------------------------------------------------|
D|-7-7-7-7-7-7-7-7--9-9-9-9-9-9------------------------|
A|-7-7-7-7-7-7-7-7--9-9-9-9-9-9------------------------|
E|-5-5-5-5-5-5-5-5--7-7-7-7-7-7------------------------|

Alaways wanted to make a Whole song of this tab everything ur welkome all my fukin
homies! love yall leave some love McL!
Ur juggalo homie Gage!

If you want to learn Insane Clown Posse Juggalo Homies guitar chords, The 5 chords we’ll look at are the C major, A major, G major, E major, and D major.
The reason we use all major chords is that the minor versions of any of these chords just require tiny adjustments.
Every of those minor chords is perfectly based on its major counterpart

The more you practice, the easier guitar will feel to play Juggalo Homies. Guitar is tough to master in the beginning, but gets easier the more time you stick with it.

Leave a Comment