Carta a Francia by Fernando Delgadillo Guitar Chords

When you looking for Carta a Francia guitar chords, you’ve visit to the perfect place.
You can play Carta a Francia by Fernando Delgadillo using guitar or guitar.
This song by Fernando Delgadillo can also be played by that equipment.
=

Carta a Francia guitar chords has pattern and included in Other Songs album.
You can also find alternative musical style, including jazz guitar chords, country music guitar chords, pop guitar chords, world music guitar chords, and rock guitar chords here.

Carta a Francia by Fernando Delgadillo Guitar Chords


ACORDES:
( E A D G B e )
D/F# 2 0 0 2 3 3
Dsus4 0 0 0 2 3 3
Dsus4 5 5 7 7 8 5
G 3 3 0 0 3 3
D9 x 0 0 2 3 0
Am 0 0 2 2 1 0
Em 0 2 2 0 3 3
E9 0 2 0 1 0 2 o tambien 2 2 0 1 0 0
A7/C 0 3 2 0 2 0
D/A 0 0 0 2 3 2 (bajo en 5ta cuerda)
D/B 0 2 0 2 3 2
D/C 0 3 0 2 3 2

INTRO
[D/F#]


E|------------------|------------------|-------------------|------------------|1
B|-----3--------3---|-------0h2/3p20---|----------1-----1--|-----0------3-----|2
G|----0-------------|----2-------------|--------0---------0|----0-0----2-2----|3
d|-----------0------|--2---------------|------2------------|---2---2--0---0---|4
a|------0h2---------|0-----------------|0-2-3-------0h3----|------------------|5
e|-3----------------|------------------|-------------------|0--------2--------|6

[D/F#]


E|-------------|------------------|------------------|------------------|1
B|-----3-------|------0h2-3/2-2---|----------1-------|------------------|2
G|----0--------|----2-------------|--------0---------|----0------2------|3
d|-----------0-|--2---------------|------2-----------|---2-2----0-0-----|4
a|------0h2----|0-----------------|0-2-3-------0h3---|--2---2--0---0----|5
e|-3-----------|------------------|------------------|0-------2---------|6


E|--3---5----------|--0---5-----------|--3---5---------|--0---5-------|1
B|--3---5----------|--1---8-----------|--3---5---------|--1---5h7/8---|2
G|--0---6----------|--0---7-----------|--0---6---------|--0---7-------|3
d|--0---7----------|--2---7-----------|--0---7---------|--2---7-------|4
a|--2---7----------|--3---5-----------|--2---7---------|--3---5-------|5
e|3-3---5----------|--0---5-----------|--3---5---------|--0---5-------|6

Intro 2 Em – D/F# G

Desde el sitio en donde siempre…
estoy pensando en ti...
con interna obstinaci[Em-D-D/F#]n…..
Y anotando lo que siento
que nos pasa aqui.
?D D/F#
aunque no sea lo mejor….
Como te extrao….
y como tengo miedo de perder mis pasos
?D ?D/F#
de extraviar en algn lado…..
mis promesas y mis sueos…..
Cul ser el mejor camino?
C ?D D/F# G
todos dicen… este si te va a llevar…
Cada vez son muchos ms los que se acercan…
la gente siempre aplaude…..
y temo tanto darme cu[D/F#]enta…..
que tan solo condesciendan…
con mi modo de mirar…
sin saber a ciencia cierta….
si comparten lo que d[D/F#]igo…..
si en verdad estn conmigo…
si conceden la importancia y el valor…
que les concedo yo tambin[D-D/F#]!!!

Hoy necesito toda la noche…
para contar lo que he escrito…
acerca de los que com[D/F#]ercian…
con la msica sencilla y reciclada…..
y que nunca dicen nada…
ser que no tienen nada que dec[D/F#]ir…..
?G
Como quisiera…
ver que el artista esta buscando la manera…
de hablar de todo lo que se ha vuelto importante….
y aun as nunca es bastante….
Aun nos falta….
D D/F# R1 G A C Dsus4 G A C Dsus4

y vaya si nos falta tanto a que cantar….. Intro 2
En el mundo solo miro dos extremos hoy….
y tu tan lejos de aqu..[Em-D/F#-G].
la nostalgia se me ira con el verano….
cuando vayas a venir….
Como te extrao…
y como tengo miedo de perder los p[A7/C]asos….
de extraviar en algn l[D/F#]ado las promesas y los sueos
Cul ser el mejor camino?
estoy seguro que diras que tome aquel
Em F C G G G
el que me lleve mas lejos……
No he sabido decir todo lo que pienso en ti...
ni he sabido hablar de amor..
Tengo tanto que contarte….
?G
que he perdido y que no encuentro….
y entre alguna de estas cosas….
?C
la frescura conque ide mis planes……
la primera vez…..
He perdido la sorpresa
?D C
con que descubr en la luna mi cabeza….
si se fue pensando en t[D/F#-G]i….
Y hasta el gusto de ser un irresponsable….
como pesan las palabras
cuando marcha uno detrs….


Em ------D-------D/F#-----G

y cuando soy yo quien tiene que decirlas……
ojal y que en esta noche…
cuando menos me llegara
?G
tu reproche a donde estoy…..
Por si haba mas que decir de lo que he dicho…
G D-Dsus4
y tambin por si lo dicho se pudo decir mejor…..
Pero no estas…..
y los que vienen no estn para perdon[A7/C]arme…
mis carencias personales…
mas bien vienen al concierto de esta noche….
R1 ?D ?D/C ?D/B ?D/A
esperando lo mejor…
Y yo tengo la cabeza en tantos lados…..
canto para tanta gente
y ahora pienso tanto en ti….
Y aun as
me alcanza el corazn para sentirlo todo….
y hoy que me haces tanta falta….
C (FIN R1) G D D9 D D9
solamente, solamente me he querido repetir….
Como te extrao……
y como tengo miedo de perder tus pasos…..
de extraviar en algn l[D/F#]ado tus promesas y tus sueos….
Cual ser el mejor camino”
Y al hacerme esta pregunta….
Pienso en t[D-D/F#]i…….
y en el camino….
D R1 G A C
que te traiga de regreso…
que te traiga de regreso…
que te traiga de regreso… uohhh ouhhhh


 

If you want to study Fernando Delgadillo Carta a Francia guitar chords, The 5 chords we’ll look at are the C major, A major, G major, E major, and D major.
The reason we use all major chords is that the minor versions of any of these chords just require tiny adjustments.
Each one of those minor chords is perfectly based on its major counterpart

The more you proceeding, the easier guitar will feel to play Carta a Francia. Guitar is not easy to study in the beginning, but gets easier the more time you stick with it.

Leave a Comment