Secret Door by Evanescence Guitar Chords

If you are looking for Secret Door guitar chords, you’ve come to the right site.
You can play Secret Door by Evanescence using guitar or guitar.
This song by Evanescence can also be played by that equipment.
=

Secret Door guitar chords has rhythm and included in album.
You can also find alternative musical category, including jazz guitar chords, country music guitar chords, pop guitar chords, world music guitar chords, and rock guitar chords here.

Secret Door by Evanescence Guitar Chords


TUNING:STANDARD

INTRO


|-------15-----|
|-----17--17---|
|---16------16-|
|-14-----------| 4x
|--------------|
|--------------|

VERSE

guitar 1


|-------15----------15----------14----------14-----|
|-----17--17------17--17------16--16------16--16---|
|---16------16--16------16--16------16--16------16-|
|-14----------14----------13----------13-----------| 2x
|--------------------------------------------------|
|--------------------------------------------------|
|-------15-----------------------------------------|
|-----17--17--------17----------15----------16-----|
|---16------16----17--17------------------16--16---|
|-14------------17------17----17--17----16------16-|
|-------------15------------17------1714-----------|
|-------------------------15-----------------------|
|-------15-----|
|-----17--17---|
|---16------16-|
|-14-----------| 2x
|--------------|
|--------------|
|-------15----------15----------14----------14-----|
|-----17--17------17--17------16--16------16--16---|
|---16------16--16------16--16------16--16------16-|
|-14----------14----------13----------13-----------| 2x
|--------------------------------------------------|
|--------------------------------------------------|
|-------15-----------------------------------------|
|-----17--17--------17----------15----------16-----|
|---16------16----17--17------------------16--16---|
|-14------------17------17----17--17----16------16-|
|-------------15------------17------1714-----------|
|-------------------------15-----------------------|
|-------15-------|
|-----17--17-----|
|---16------16---|
|-14----------14-|
|----------------|
|----------------|

guitar 2


|--------------------------|
|----8-----8-----7-----7---|
|---9-9---9-9---8-8---8-8--|
|--9---9-9---9-9---9-9---9-| 2x
|-7-----7-----6-----6------|
|--------------------------|
|--------------------------|
|----8-----5-----3-----4---|
|---9-9---5-5---------4-4--|
|--9---9-5---5--5-5--4---4-|
|-7-----3------5---52------|
|-------------3------------|
|---------|
|---------|
|----0----|
|---2-2---|
|--2---2--|
|-0-----0-|

CHORUS

guitar 1


And I, I will remember how to fly


|------|

Unlock the heavens in my mind |—-4-|
|—4–|


 

If you want to study Evanescence Secret Door guitar chords, The 5 chords we’ll look at are the C major, A major, G major, E major, and D major.
The reason we use all major chords is that the minor versions of any of these chords just lack tiny adjustments.
Each one of those minor chords is absolutely based on its major counterpart

The more you proceeding, the simple guitar will feel to play Secret Door. Guitar is tough to study in the beginning, but gets easier the more time you stick with it.

Leave a Comment