Torpedo by Eraserheads Guitar Chords

When you looking for Torpedo guitar chords, you’ve visit to the best site.
You can play Torpedo by Eraserheads using guitar or guitar.
This song by Eraserheads can also be played by that instruments.
=

Torpedo guitar chords has tempo and included in Cutterpillow (1995) album.
You can also find other musical category, as well as jazz guitar chords, country music guitar chords, pop guitar chords, world music guitar chords, and rock guitar chords here.

Torpedo by Eraserheads Guitar Chords


Verse:

Pasensya na


e|------3---------------|
B|----1-----------------| (repeat 4x)
G|---0-0----------------|
D|----------------------|
A|----------------------|
E|----------------------|

Kung ako ay


e|------2---------------|
B|----3-----------------| (repeat 4x)
G|---2-2----------------|
D|----------------------|
A|----------------------|
E|----------------------|

Di’ nag


e|------1------------3-------|
B|----3----(2x)----3----(2x)-|
G|---2-2----------0-0--------|
D|---------------------------|
A|---------------------------|
E|---------------------------|

Sasalita


e|------3---------------|
B|----1-----------------| (repeat 4x)
G|---0-0----------------|
D|----------------------|
A|----------------------|
E|----------------------|

Hindi ko kayang


e|------3---------------|
B|----1-----------------| (repeat 4x)
G|---0-0----------------|
D|----------------------|
A|----------------------|
E|----------------------|

Sabihin


e|------2---------------|
B|----3-----------------| (repeat 4x)
G|---2-2----------------|
D|----------------------|
A|----------------------|
E|----------------------|

Ang aking


e|------1------------3-------|
B|----3----(2x)----3----(2x)-|
G|---2-2----------0-0--------|
D|---------------------------|
A|---------------------------|
E|---------------------------|

Nadarama


e|------3---------3-----|
B|----1----(2x)---1-----|
G|---0-0----------0-----|
D|----------------------|
A|----------------------|
E|----------------------|

RIFF:


e|----------------------|
B|----------------------|
G|----------------------|
D|----------------------| (Both guitarist play this
A|---77-5-3-5----------| riff with Distortion!)
E|----------------------|

Chorus:
Huwag mo na akong pilitin
Ako ay walang lakas ng loob
Para tumanggi
Walang dapat ipagtaka
Ako ay ipinanganak
Na torpe
Sa ayaw at hindi[-]

Pasensya na
Kung ikaw ay naiinis
Ayoko na sanang
Pag-usapan pa
Kung gusto mo ay
Manood ka na lang ng sine
Di ba huwebes ngayon
Baka may bago nang palabas

[C-D-Dm-G-C]Repeat Riff:

Chorus:
Huwag mo na akong pilitin
Ako ay walang lakas ng loob
Para tumanggi
Walang dapat ipagtaka
Ako ay ipinanganak
Na torpe
Diyan sa tabi-ta[Am-G]bi

Pasensya na
Kung ako ay naiiyak
Mababaw lang talaga ang luha ko
Di ko mapigil
Ang aking damdamin
Puede bang umalis ka na
Tumutunog na ang beeper mo
[C-D-Dm-C]Pasensiya na… haa-haa… oh hoh


 

If you want to study Eraserheads Torpedo guitar chords, The 5 chords we’ll look at are the C major, A major, G major, E major, and D major.
The reason we use all major chords is that the minor versions of any of these chords just require tiny adjustments.
Each one of those minor chords is completely based on its major counterpart

The more you proceeding, the simple guitar will feel to play Torpedo. Guitar is not easy to master in the beginning, but gets easier the longer you stick with it.

Leave a Comment