Wasted Love by City and Colour Guitar Chords

If you are looking for Wasted Love guitar chords, you already come to the right site.
You can play Wasted Love by City and Colour using guitar or guitar.
This song by City and Colour can also be played by that instruments.
=

Wasted Love guitar chords has swing and included in If I Should Go Before You (2015) album.
You can also find other musical genres, as well as jazz guitar chords, country music guitar chords, pop guitar chords, world music guitar chords, and rock guitar chords here.

Wasted Love by City and Colour Guitar Chords


[Main Riff]


----0-------0-1--1~-----------|
----1-----1--(3)-3~------3--3-|
----2---2----(2)-2~------2--2-|
----2------------0~------0--0-|
-0--0--------------------0--0-|
------------------------------|

[Intro – Main Riff] x4

[Verse 1 – Play chords exactly as in Main Riff]
Careless love
Quit pouring honey in my ears
You’re speaking diamonds crystal clear
So far away I want you near

[Chorus – Try ro accent lower notes in Dm chords to dintinguish from Dm chords in verses]
Crying out for more, just a little more
Tied down on the floor like a prisoner of war[(Gsus4][G)]

Oh, I’ve been down so long
Day is nearly gone, I must carry on with this wasted love

[Interlude – Main Riff] x2

[Verse 2 – Play chords the same as Verse 1, except where noted differently]

Careless love


|-----------0-------------1~-----------|
|-----------1-------------3~------3--3-|
|-----------2-------------2~------2--2-|
|-----------2-------2---0-0~------0--0-|
|---------0-0---0-3---3-----------0--0-|
|--------------------------------------|

There’s more to say than should be said


|------------------------------------0---0-0-----0-1~-----------|
|------------------------------------1-3-----3-1---3~------3--3-|
|------------------------------------2-------------2~------2--2-|
|------------------------------------2-------------0~------0--0-|
|----------------------------------0-0---------------------0--0-|
|---------------------------------------------------------------|

Can’t get these words straight in my head
You make me feel so powerless


I’m crying out for more, just a little more
Tied down on the floor like a prisoner of war[(Gsus4][G)]
Oh, I’ve been down so long
Day is nearly gone, I must carry on with this wasted love

[Solo – continue Dm F Am G progression throughout]


|--------------------------------------------------------------------8----8----8---------------|
|-------------------------------------------------------------10-13--8h10-8h10-8h10------------|
|-------------------------------------------------10----10-12--------------------------12------|
|--10h12-10h12-10h12-10h12-10h12-10----10-10h12------12-------------------------------------12-|
|-----------------------------------12---------------------------------------------------------|
|----------------------------------------------------------------------------------------------|
|----------------------------------------------------------------------------------------------|
|----------------------------------------------------------------------------------------------|
|-12--10p9--------------------------------------------10-----9----9----------------------------|
|----------12--10h12-10----------------------10----12-----12---12---12--10h12--10--------------|
|-----------------------10h12-10-------10/12----12---------------------------------12p10-------|
|--------------------------------13-10---------------------------------------------------13-10~|

Wasted love
Wasted love


|-----------0-------------1~-----------|
|-----------1-------------3~------3--3-|
|-----------2-------------2~------2--2-|
|-----------2-------2---0-0~------0--0-|
|---------0-0---0-3---3-----------0--0-|
|--------------------------------------|

Chorus
Crying out for more, just a little more
Tied down on the floor like a prisoner of war
Oh, I’ve been down so long
Day is nearly gone, I must carry on with this wasted love
Wasted love

[Outro – Main Riff] x2


|-----------0-------------1~-----------|
|-----------1-------------3~------3--3-|
|-----------2-------------2~------2--2-|
|-----------2-------2---0-0~------0--0-|
|---------0-0---0-3---3-----------0--0-|
|--------------------------------------|

[Main Riff] x1

Wasted love


 

If you want to study City and Colour Wasted Love guitar chords, The 5 chords we’ll look at are the C major, A major, G major, E major, and D major.
The reason we use all major chords is that the minor versions of any of these chords just lack tiny adjustments.
Each one of those minor chords is perfectly based on its major counterpart

The more you practice, the simple guitar will feel to play Wasted Love. Guitar is not easy to master in the beginning, but gets easier the more time you stick with it.

Leave a Comment