Fork Tongued by Capture the Crown Guitar Chords

If you are looking for Fork Tongued guitar chords, you’ve visit to the perfect place.
You can play Fork Tongued by Capture the Crown using guitar or guitar.
This song by Capture the Crown can also be played by that equipment.
=

Fork Tongued guitar chords has swing and included in album.
You can also find more musical genres, as well as jazz guitar chords, country music guitar chords, pop guitar chords, world music guitar chords, and rock guitar chords here.

Fork Tongued by Capture the Crown Guitar Chords


Band: Capture The Crown
Song: Fork Tongued
Album: ‘Til Death

Tuning: Drop D

[++++++++++++++++++++++++++++++++++++]www.youtube.com/watch?vONH9CVkQmzc
[++++++++++++++++++++++++++++++++++++]

2X times

Guitar 1


E|------------------------------------------------------------------------------------------------|
B|------------------------------------------------------------------------------------------------|
G|------------------------------------------------------------------------------------------------|
D|-----------------------------------------10-9-8-7----------------------------3--------6--5--3---|
A|-0~-----0--0--3p--0----0~----5h-8--8--5-----------10-9-8-7--8--8-88--3--3-------5--3-----------5|
D|-0~-----0--0--3p--0----0~-----------------------------------8--8-88--3--3-----------------------|

. . . . . . . . . . ..
P.M.


E|------------------------------------------------------------------------------------------------|
B|------------------------------------------------------------------------------------------------|
G|------------------------------------------------------------------------------------------------|
D|-----------------------------------------10-9-8-7-----------------------------------------------|
A|-0~-----0--0--3p--0----0~----5h-8--8--5-----------10-9-8-7--8---8-888--8--10(x)-----------------|
D|-0~-----0--0--3p--0----0~-----------------------------------8---8-888--8--10(x)-----------------|

. . . . . . . . . . ..
P.M.

Guitar 2


E|-----------------------------------------------------------------------------|
B|-----------------------------------------------------------------------------|
G|-----------------------------------------------------------------------------|
D|--------------------------------------------10-9-8-7-------------------------|
A|-0~-----0--0--3p--0----0~----8h-12--12--8------------10-9-8-7--8--8-88--3--3-|
D|-0~-----0--0--3p--0----0~--------------------------------------8--8-88--3--3-|

. . . . . . . . . . ..|
P.M.|


------------------------|
------------------------|
------------------------|
---7---------10--8--7---|
------8--7-------------8|
------------------------|
E|------------------------------------------------------------------------------------------------|
B|------------------------------------------------------------------------------------------------|
G|------------------------------------------------------------------------------------------------|
D|-------------------------------------------10-9-8-7---------------------------------------------|
A|-0~-----0--0--3p--0----0~----8h-12--12--8------------10-9-8-7--8---8-888--8--10(x)--------------|
D|-0~-----0--0--3p--0----0~--------------------------------------8---8-888--8--10(x)--------------|

. . . . . . . . . . ..
P.M.

Guitar 1


E|--------------------------|
B|--------------------------|
G|--------------------------|
D|-0~~~~~~------------------|
A|-0~~~~~~-8--7--5--7--5--3-|
D|-0~~~~~~------------------|

Guitar 2


E|-----------------------------|
B|-----------------------------|
G|-----------------------------|
D|-0~~~~~~---------------------|
A|-0~~~~~~-12--10--8--10--8--7-|
D|-0~~~~~~---------------------|

Guitar 1


E|----------------------------------------------------------------|
B|----------------------------------------------------------------|
G|----------------------------------------------------------------|
D|----------------------------------------------------------------|
A|0--0--000--0--0---000-000-000-000--0--000--0--0---5-8---3-5---5-|
D|0--0--000--0--0---000-111-222-110--0--000--0--0-------0-----0---|

. . … . . … … … … . … . . . .


E|----------------------------------------------------------------|
B|----------------------------------------------------------------|
G|----------------------------------------------------------------|
D|----------------------------------------------------------------|
A|0--0--00--------------00--00--000--0--00----------5-8---3-5---5-|
D|0--0--000--0--0-------000-000-000--0--000--0--0-------0-----0---|

. . .. .. .. … . .. . .

2X

Guitar 1


E|-----------------------------------------------------------------|
B|-----------------------------------------------------------------|
G|-----------------------------------------------------------------|
D|-----------------------------------------------------------------|
A|0~----000~-0~-0~------000-0-0-0------0000----------------00000000|
D|0~----001~-0~-0~------001-1-1-1------00000--0------0-----00000000|

. … . . … . . . …. ……..

Guitar 2


E|----------------------------------------------------------------|
B|----------------------------------------------------------------|
G|----------------------------------------------------------------|
D|----------------------------------------------------------------|
A|0--0--000--0--0---000-000-000-000--0--000--0--0---8-12--7-8---8-|
D|0--0--000--0--0---000-111-222-110--0--000--0--0-------0-----0---|

. . … . . … … … … . … . . . .


E|----------------------------------------------------------------|
B|----------------------------------------------------------------|
G|----------------------------------------------------------------|
D|----------------------------------------------------------------|
A|0--0--00--------------00--00--000--0--00----------8-12--7-8---8-|
D|0--0--000--0--0-------000-000-000--0--000--0--0-------0-----0---|

. . .. .. .. … . .. . .

2X

Guitar 2


E|-----------------------------------------------------------------|
B|-----------------------------------------------------------------|
G|-----------------------------------------------------------------|
D|-----------------------------------------------------------------|
A|0~----000~-0~-0~------000-0-0-0------0000----------------00000000|
D|0~----001~-0~-0~------001-1-1-1------00000-----0------0--00000000|

. … . . … . . . …. ……..

Guitar 2


E|----------------|
B|----------------|
G|----------------|
D|8~~-------------|
A|8~~-------------|
D|8~~-------------|

Guitar 1


E|----------------|
B|----------------|
G|10---10---9-9-9-|
D|x----x----x-x-x-|
A|8----8----7-7-7-|
D|----------------|

I don’t put the times that have some beat I need figured out watching the video 😉
www.youtube.com/watch?vONH9CVkQmzc

2X

Guitar 1


E|-------------------------------------|
B|-------------------------------------|
G|10---14--12----10--9---10-9---10--10-|
D|x----x---x-----x---x---x--x---x---x--|
A|8----12--10----8---7---8--7---8---8--|
D|-------------------------------------|

Guitar 2


E|----------------------------|
B|----------------------------|
G|----------------------------|
D|0--10--8--3---0--10--8--10--|
A|0--10--8--3---0--10--8--10--|
D|0--10--8--3---0--10--8--10--|

Guitar 2


E|------------------------------------------------------------------------------------------|
B|---------------------------6-6------------------------------------------------------------|
G|---------------------------9-9------------------------------------------------------------|
D|-----7-------------------------------7---------7------------------------------------------|
A|0------8-7--------------0--------7h8---8--0------8-7--------------0--------0--------------|
D|0----------101010108888-0-----------------0----------101010108888-0--7h-8--0---5----------|

. . . . ….. . . . . . ….. . .

This is ten not one and zero


E|------------------------------------------------------------------------------------------|
B|---------------------------6-6------------------------------------------------------------|
G|---------------------------9-9------------------------------------------------------------|
D|-----7-------------------------------7---------7------------------------------------------|
A|0------8-7--------------0--------7h8---8--0------8-7--------------0--------0---------0----|
D|0----------101010108888-0-----------------0----------101010108888-0--7h-8--0---5h-7--0--5-|

. . . . ….. . . . . . ….. . . .

Guitar 1


E|------------------------------------------------------------------------------------------|
B|------------------------------------------------------------------------------------------|
G|------------------------------------------------------------------------------------------|
D|-----3---------------------3-3-------3---------3------------------------------------------|
A|0------5-3--------------0--3-3---3h5---3--0------5-3--------------0--------0--------------|
D|0----------101010108888-0--3-3------------0----------101010108888-0--7h-8--0---5----------|

. . . . ….. . . . . . ….. . .

This is ten not one and zero


E|------------------------------------------------------------------------------------------|
B|------------------------------------------------------------------------------------------|
G|------------------------------------------------------------------------------------------|
D|-----3---------------------3-3-------3---------3------------------------------------------|
A|0------5-3--------------0--3-3---3h5---5--0------5-3--------------0--------0---------0----|
D|0----------101010108888-0--3-3------------0----------101010108888-0--10h12-0---8h-10-0--8-|

. . . . ….. . . . . . ….. . . .

Guitar 1 & 2


E|----------------------------------------------|
B|----------------------------------------------|
G|----------------------------------------------|
D|0~~------------------8--0~~-------------------|
A|0~~------------------8--0~~--------------0----|
D|0~~------------------8--0~~--------------0----|

.

Guitar 1 & 2


E|----------------------------------------------------------------|
B|----------------------------------------------------------------|
G|----------------------------------------------------------------|
D|----------------------------------------------------------------| 2X
A|0-000-0-000-000-00000000000-000-----0-0-0-00-00-----00000-------|
D|0-000-0-000-000-00000000000-000-----0-0-0-00-00-----00000--0--0-|

. … . … … ……….. … . . . .. .. …..


E|-----------------|
B|-----------------|
G|-----------------|
D|0~~--------------|
A|0~~---------12/--|
D|0~~---------12/--|
E|----------------------------------------------------------------|
B|----------------------------------------------------------------|
G|----------------------------------------------------------------|
D|----------------------------------------------------------------| 2X
A|0-000-0-000-000-00000000000-000-----0-0-0-00-00-----------------|
D|0-000-0-000-000-00000000000-000-----0-0-0-00-00-----------------|

. … . … … ……….. … . . . .. ..

I don’t put the times that have some beat I need figured out watching the video 😉
www.youtube.com/watch?vONH9CVkQmzc

2X

Guitar 1


E|-------------------------------------|
B|-------------------------------------|
G|10---14--12----10--9---10-9---10--10-|
D|x----x---x-----x---x---x--x---x---x--|
A|8----12--10----8---7---8--7---8---8--|
D|-------------------------------------|

Guitar 2


E|----------------------------|
B|----------------------------|
G|----------------------------|
D|0--10--8--3---0--10--8--10--|
A|0--10--8--3---0--10--8--10--|
D|0--10--8--3---0--10--8--10--|

Guitar Solo

Guitar 1


E|---------------------------------------------------------------|
B|10b--10b------------------------------------8----8----8--------|
G|12b--12b--12-10-12---------------7-----------10---10---10--7--|
D|----------------------------7--8------10-----------------------|
A|----------------------5--8-------------------------------------|
D|---------------------------------------------------------------|

. . . .

Guitar 2


E|---------------------------------------------------------------|
B|-------------------------------------------12---12---12--------|
G|----------------------------------------------14---14---14--10-|
D|---------------------------------------------------------------|
A|---------------------------------------------------------------|
D|---------------------------------------------------------------|

Guitar 1


E|10h0h8h0h10h8h0h8h7h8h7h7h5h7h5h5h3h5h3-------------------------|
B|----------------------------------------------------------------|
G|----------------------------------------------------------------|
D|-----------------------------------------------------5-7-8-5-7-8|
A|-----------------------------------------5-7-8-5-7-8------------|
D|----------------------------------------------------------------|
----------------------------------------------|
-10h11h10h11----------------------------------|
------------10h12h10h12-----------------------|
-----------------------10h12h10h12------------|
----------------------------------10h12h10h12-|
----------------------------------------------|

Guitar 1


E|------------------------------------------|
B|------------------------------------------|
G|10----------------------------------------|
D|x-----------------------------------------|
A|9------------------00-00-0000000------0---|
D|-------------------00-00-0000000------0---|

.. .. ……. .

Guitar 2


E|------------------------------------------|
B|------------------------------------------|
G|------------------------------------------|
D|0-----------------------------------------|
A|0------------------00-00-0000000------0---|
D|0------------------00-00-0000000------0---|

.. .. ……. .

Guitar 1 & 2


E|--------------------------------|
B|--------------------------------|
G|--------------------------------| 2X
D|--------------------------------|
A|00-00-0000000-----------0-00-00-|
D|00-00-0000000-----------0-00-00-|

.. .. ……. . .. ..


E|--------------------------------|
B|--------------------------------|
G|--------------------------------| 2X
D|--------------------------------|
A|00~00~0000000~~---------0~00~00~|
D|00~00~0000000~~---------0~00~00~|

.. .. ……. . .. ..


E|--------------------------|
B|--------------------------|
G|--------------------------|
D|--------------------------|
A|0-------0--0--0~~---------|
D|0-------0--0--0~~---------|

www.youtube.com/watch?vONH9CVkQmzc


 

 

If you want to master Capture the Crown Fork Tongued guitar chords, The 5 chords we’ll look at are the C major, A major, G major, E major, and D major.
The reason we use all major chords is that the minor versions of any of these chords just require tiny adjustments.
Every of those minor chords is fully based on its major counterpart

The more you practice, the easier guitar will feel to play Fork Tongued. Guitar is not easy to master in the beginning, but gets easier the more time you stick with it.

Leave a Comment