Gimme Some Lovin’ by Blues Brothers Guitar Chords

When you looking for Gimme Some Lovin’ guitar chords, you just visit to the best site.
You can play Gimme Some Lovin’ by Blues Brothers using guitar or guitar.
This song by Blues Brothers can also be played by that instruments.
=

Gimme Some Lovin’ guitar chords has rhythm and included in album.
You can also find other musical genres, as well as jazz guitar chords, country music guitar chords, pop guitar chords, world music guitar chords, and rock guitar chords here.

Gimme Some Lovin’ by Blues Brothers Guitar Chords


-------------------------------------------------------------------------------

GIMME SOME LOVINBlues Brothers


-------------------------------------------------------------------------------

Tabbed by: luco_kraze
Email:

Tuning: EADGBE

Intro


e|-------------------|
B|-------------------|
G|------5-7-7-7-7----| x 12
D|-------------------|
A|-------------------|
E|-------------------|

Verse 1


e|-------------------|
B|-------------------|
G|------5-7-7-7-7----| x 10
D|-------------------|
A|-------------------|
E|-------------------|

Pre-chorus Chords


e|--5---1---3---6--------|
B|--7---1---3---6--------|
G|--7---2---4---7--------|
D|--7---3---5---8--------|
A|--5---3---5---8--------|
E|------1---3---6--------|

Chorus Chords


e|---5---3-------------|
B|---7---3-------------|
G|---7---4-------------| x 4
D|---7---5-------------|
A|---5---5-------------|
E|-------3-------------|

( Tab from: http://www.guitartabs.cc/tabs/b/blues_brothers/gimme_some_lovin_tab.html )


e|-------------------|
B|-------------------|
G|-----7b7b-5-------|
D|-------------------|
A|-------------------|
E|-------------------|

Verse 2


e|-------------------|
B|-------------------|
G|------5-7-7-7-7----| x 12
D|-------------------|
A|-------------------|
E|-------------------|
e|---------------------------------|
B|---------------------------------|
G|--7-5-7-5-7-----7-5-7-5-7--------| x 4
D|------------7~------------5-6-7--|
A|---------------------------------|
E|---------------------------------|

Pre-chorus Chords


e|--5---1---3---6--------|
B|--7---1---3---6--------|
G|--7---2---4---7--------|
D|--7---3---5---8--------|
A|--5---3---5---8--------|
E|------1---3---6--------|

Chorus Chords


e|---5---3-------------|
B|---7---3-------------|
G|---7---4-------------| x 4
D|---7---5-------------|
A|---5---5-------------|
E|-------3-------------|

Repeat Verse 2, Pre-chorus.

Do chorus 5 times.


 

If you want to master Blues Brothers Gimme Some Lovin’ guitar chords, The 5 chords we’ll look at are the C major, A major, G major, E major, and D major.
The reason we use all major chords is that the minor versions of any of these chords just lack tiny adjustments.
Each one of those minor chords is completely based on its major counterpart

The more you practice, the simple guitar will feel to play Gimme Some Lovin’. Guitar is hard to study in the beginning, but gets easier the longer you stick with it.

Leave a Comment