Girl Singing in the Wreckage by Black Box Recorder Guitar Chords

When you looking for Girl Singing in the Wreckage guitar chords, you have visit to the right place.
You can play Girl Singing in the Wreckage by Black Box Recorder using guitar or guitar.
This song by Black Box Recorder can also be played by that instruments.
=

Girl Singing in the Wreckage guitar chords has swing and included in England Made Me (1998) album.
You can also find other musical style, including jazz guitar chords, country music guitar chords, pop guitar chords, world music guitar chords, and rock guitar chords here.

Girl Singing in the Wreckage by Black Box Recorder Guitar Chords


By Black Box Recorder, on their debut album #England Made Me#, 1998

It’s my
primary instinct to protect the child
A E C#m D (transitory notes: d / c# / d/ c#)
Girl singing in the wreckage
My dress is torn, my hair is wild
Girl singing in the wreckage

My first kiss, my early boyfriend
Girl singing in the wreckage
Wet weekends, new years eve parties
Girl singing in the wreckage

(Am arpeggio)


-----0---------0----------0----------0------|
--------1---------1----------1----------1---|
-2------------------------------------------|
-----------3--------4-----------3-----------|
--------------------------------------------|
--------------------------------------------|

Hour after hour after hour X2

My 18th birthday, I’ll die of boredom
Girl singing in the wreckage
My private world is smashed right open
Girl singing in the wreckage

My 1st trip, my expectations
I had a dream that it would end like this
No destiny, No destination
A E C#m (tacet)
You hit the ground and then it stops

(Am arpeggio)


-----0---------0----------0----------0------|
--------1---------1----------1----------1---|
-2------------------------------------------|
-----------3--------4-----------3-----------|
--------------------------------------------|
--------------------------------------------|

Hour after hour after hour X2

(Bm arpeggio)


--------------------------------------------|
-----3---------3----------3----------3------|
--------4---------4----------4----------4---|
-4----------5--------6----------5-----------|
--------------------------------------------|
--------------------------------------------|

Hour after hour after hour X2

I miss my hometown, it’s nothing special
Call my parents let them know I’ve arrived
My primary instinct is to protect the child
Send the postcard from the airport

That s what I could figure out, but all comments welcome.


 

 

If you want to study Black Box Recorder Girl Singing in the Wreckage guitar chords, The 5 chords we’ll look at are the C major, A major, G major, E major, and D major.
The reason we use all major chords is that the minor versions of any of these chords just require tiny adjustments.
Every of those minor chords is fully based on its major counterpart

The more you proceeding, the simple guitar will feel to play Girl Singing in the Wreckage. Guitar is hard to study in the beginning, but gets easier the longer you stick with it.

Leave a Comment