Immune by Allele Guitar Chords

When you looking for Immune guitar chords, you already visit to the perfect site.
You can play Immune by Allele using guitar or guitar.
This song by Allele can also be played by that instruments.
=

Immune guitar chords has tempo and included in album.
You can also find alternative musical genres, as well as jazz guitar chords, country music guitar chords, pop guitar chords, world music guitar chords, and rock guitar chords here.

Immune by Allele Guitar Chords


KT Tunstall – Immune

Intro/Verse:


--2--------2--2-2--2-------------0--0-0--0-0----0----|
---2-------2--2-2--2--------0----0--0-0--0-0----0----|
----2------2--2-2--2---2-0--1----1--1-2--2-1----1-0--|
-----4-----4--4-4--4---4-0--2----2--2-2--2-2----2-0--|
------4----4--4-4--4---4-0--2----2--2-2--2-2----2-0--|
-------2---2--2-2--2---2-0--0----0--0-0--0-0----0-0--|

[E/G#]


-------0-0--0--0--0-0-0-------4-4-x----0----0--0-----|
--2----2-2--3--3--3-3-3/--5---5-5-x----0----0--0--0--|
--2----2-2--2--2--2-2-2/--6---6-6-x----1----1--1--0--|
--2----2-2--2--2--2-2-2/--6---6-6-x----2----2--2--0--|
--0----0-0--0--0--0-0-0---4---4-4-x----2----2--2--0--|
-------------------------------------4---------------|


--2-----2-2-2----2--2---2------0--0-0---0-0---0-0----|
--2-----2-2-2----2--2---2--0---0--0-0---0-0---0-0----|
--2--2--2-2-2----2--2---2--1---1--1-2---2-1---1-1-0--|
--4--4--4-4-4----4--4---4--2---2--2-2---2-2---2-2-0--|
--4--4---------4------4----2---2--2-2---2-2---2-2-0--|
--2--2---------2------2----0---0--0-0---0-0---0-0-0--|


-------0---0-0--0--0--0-0--0----0---0-0----0--0------|
--2----2---2-3--3--3--3-3--2----2---2-3----3--2-2----|
--2----2---2-2--2--2--2-2--2----2---2-2----2--2-2-0--|
--2----2---2-2--2--2--2-2--2----2---2-2----2--2-2-0--|
--0----0---0-0--0--0--0-0--0----0---0-0----0--0-0-0--|
-----------------------------------------------------|

1st Chorus:


-----------------|
--9---5---4---5--|
--9---6---4---6--|
--9---6---4---7--|
--7---4---2---7--|
--------------5--|

2nd Chorus/Outro:


--7---9---7---5--|
--9---9---7---5--|
--9---9---8---6--|
--9---11--9---7--|
--7---11--9---7--|
------9---7---5--|

Intro:
lala lulla laa lah[E/G#]
lala lullaahhh lah

Verse:
you never find your way
lala lulla laa lah
if you never [E/G#]ask anybody
and you’re eyes are all ablaze
lala lulla laa lah
and there’s no complicity
lala lulla laa lah
if you haven’t [E/G#]got anybody
I can see it in your gaze
lala lulla laa lah

1st Chorus:
and I, I know you
and I know what you do
oh and you can try
you can try hide away
you can try and hide away
but you know that you’re not immune anymore

Intro:
lala lulla laa lah[E/G#]
lala lulla laa lah

Verse:
and it doesn’t really matter no no
lala lulla laa lah
if you shatter [E/G#]all your dreams
you can glue the pieces ya
lala lulla laa lah
and I don’t even care, no no
lala lulla laa lah
if you don’t [E/G#]notice me
’cause I don’t want excuses anymore, no no ho

2nd Chorus/Outro:
’cause I, I know ah you
and I know what you do
oh and you can try
you can try hide away
you can try and hide away
but you know that you’re not immune

no you’re not immune
you’re not immune
you’re not immune anymore
you’re not immune
you’re not immune anymore

nada daha hee yeah
dada hee yeah yeah
lah la laa lah lah
you can try and hide away
but you know that you’re not immune
anymore


 

If you want to master Allele Immune guitar chords, The 5 chords we’ll look at are the C major, A major, G major, E major, and D major.
The reason we use all major chords is that the minor versions of any of these chords just lack tiny adjustments.
Every of those minor chords is entirely based on its major counterpart

The more you proceeding, the easier guitar will feel to play Immune. Guitar is not easy to master in the beginning, but gets easier the longer you stick with it.

Leave a Comment