Paranoia by A Day to Remember Guitar Chords

When you looking for Paranoia guitar chords, you’ve visit to the right site.
You can play Paranoia by A Day to Remember using guitar or guitar.
This song by A Day to Remember can also be played by that instruments.
=

Paranoia guitar chords has tempo and included in Bad Vibrations (2016) album.
You can also find alternative musical genres, as well as jazz guitar chords, country music guitar chords, pop guitar chords, world music guitar chords, and rock guitar chords here.

Paranoia by A Day to Remember Guitar Chords


[Intro/Verse]


D|-------------------------------------------------------|
A|---6-6-6-6-7-6-6-6-6-7-6-6-6-6-7-6-6-6-6-7-6-6-6-6-7---|
F|---5-5-5-5-6-5-5-5-5-6-5-5-5-5-6-5-5-5-5-6-5-5-5-5-6---|
C|-------------------------------------------------------|
G|-------------------------------------------------------|
C|-------------------------------------------------------|

“Expect the worst of everyone I meet…”

[Main Riff]


D|---------------------------------------------|
A|---------------------------------------------|
F|---------------------------------------------|
C|---3-3-3-3-4-3-3-3-3-4-3-3-3-3-4-3-3-3-3-4---|
G|---3-3-3-3-4-3-3-3-3-4-3-3-3-3-4-3-3-3-3-4---|
C|---3-3-3-3-4-3-3-3-3-4-3-3-3-3-4-3-3-3-3-4---|

[Pre-Chorus]


D|-------------------------------------|
A|-------------------------------------|
F|---6-6-6-6-6-6-6-6-8-8-8-8-8-8-8-8---|
C|---6-6-6-6-6-6-6-6-8-8-8-8-8-8-8-8---|
G|---4-4-4-4-4-4-4-4-6-6-6-6-6-6-6-6---|
C|-------------------------------------|

“The doctor says i’m heading towards destruction…”


D|---------------------------------------------------------------------|
A|---------------------------------------------------------------------|
F|-------------------6-6-6-6-6-6-6-6-8-8-8-8-8-8-8-8-------------------|
C|---3-3-3-3-3-3-3-3-6-6-6-6-6-6-6-6-8-8-8-8-8-8-8-8-1-1-1-1-1-1-1-1---|
G|---3-3-3-3-3-3-3-3-4-4-4-4-4-4-4-4-6-6-6-6-6-6-6-6-1-1-1-1-1-1-1-1---|
C|---3-3-3-3-3-3-3-3---------------------------------1-1-1-1-1-1-1-1---|

“I’m like a time bomb, ticking in your head”
“Paranoia, clouding your judgement.”


D|---------------------------------------------------------------------|
A|---------------------------------------------------------------------|
F|-------------------6-6-6-6-6-6-6-6-----------------------------------|
C|---3-3-3-3-3-3-3-3-6-6-6-6-6-6-6-6-1-1-1-1-1-1-1-1-1-1-1-1-1-1-1-1---|
G|---3-3-3-3-3-3-3-3-4-4-4-4-4-4-4-4-1-1-1-1-1-1-1-1-1-1-1-1-1-1-1-1---|
C|---3-3-3-3-3-3-3-3-----------------1-1-1-1-1-1-1-1-1-1-1-1-1-1-1-1---|

“And no matter what you do about it…”

[Breakdown]


D|---------------------------------------------|
A|---------------------------------------------|
F|---------------------------------------------|
C|---3-3-3-3-3-3-3-4-3-3-3-3-3-3-3-3-4-3-5-3---|
G|---3-3-3-3-3-3-3-4-3-3-3-3-3-3-3-3-4-3-5-3---|
C|---3-3-3-3-3-3-3-4-3-3-3-3-3-3-3-3-4-3-5-3---|


D|---------------------------------------------|
A|---------------------------------------------|
F|---------------------------------------------|
C|---3-3-3-3-3-3-3-4-3-3-3-3-3-3-3-3-4-3-5-3---|
G|---3-3-3-3-3-3-3-4-3-3-3-3-3-3-3-3-4-3-5-3---|
C|---3-3-3-3-3-3-3-4-3-3-3-3-3-3-3-3-4-3-5-3---|

“You can’t run, you can’t hide…”

If you want to master A Day to Remember Paranoia guitar chords, The 5 chords we’ll look at are the C major, A major, G major, E major, and D major.
The reason we use all major chords is that the minor versions of any of these chords just require tiny adjustments.
Every of those minor chords is perfectly based on its major counterpart

The more you proceeding, the easier guitar will feel to play Paranoia. Guitar is not easy to master in the beginning, but gets easier the longer you stick with it.

Leave a Comment